Cifra Club

Gone, Gone, Gone

Phillip Phillips

Cifrado: Principal (guitarra y guitarra eléctrica)
tono: F# (con acordes en la forma de D) Capotraste en 4ª casa
[Intro] D5

   D5
E|----------------------------------------------|
B|-------3--------------3-----------------------|
G|---2-----2---2----2-----2---2-----------------| (2x)
D|-0---0-----0----0---0-----0-------------------|
A|----------------------------------------------|
E|----------------------------------------------|

[Primeira Parte]

      D5
When life leaves you high and dry

I'll be at your door tonight
    A4
If you need help, if you need help
       Bm7
I'll shut down the city lights

I'll lie, cheat, I'll beg and bribe
    G9
To make you well, to make you well
     D5
When enemies are at your door

I'll carry you away from war
    A4
If you need help, if you need help
      Bm7
Your hope dangling by a string

I'll share in your suffering
    G9
To make you well, to make you well

[Primeira Parte]

Parte 1 de 4

   D5
E|----------------------------------------------|
B|-------3--------------3-----------------------|
G|---2-----2---2----2-----2---2-----------------| (2x)
D|-0---0-----0----0---0-----0-------------------|
A|----------------------------------------------|
E|----------------------------------------------|

Parte 2 de 4

   A4
E|----------------------------------------------|
B|-------3--------------3-----------------------|
G|---2-----2---2----2-----2---2-----------------| (2x)
D|----------------------------------------------|
A|-0---0-----0----0---0-----0-------------------|
E|----------------------------------------------|

Parte 3 de 4

   Bm7
E|----------------------------------------------|
B|-------3--------------3-----------------------|
G|---2-----2---2----2-----2---2-----------------| (2x)
D|----------------------------------------------|
A|-2---2-----2----2---2-----2-------------------|
E|----------------------------------------------|

Parte 4 de 4

   G9
E|----------------------------------------------|
B|-------3--------------3-----------------------|
G|---2-----2---2----2-----2---2-----------------| (2x)
D|----------------------------------------------|
A|----------------------------------------------|
E|-3---3-----3----3---3-----3-------------------|

[Pré-Refrão]

         G9      D5   A4
Give me reasons to believe
                G9     D5       A4
That you would do the same for me

[Refrão]

And I would do it 
     G9  D5      Bm7  A4
For yo___u, for yo____u
      G9             D5
Baby, I'm not moving on
               Bm7               A4
I'll love you long after you're gone
     G9  D5      Bm7  A4
For yo___u, for yo____u
          G9           D5
You will never sleep alone
               Bm7               A4
I'll love you long after you're gone

And long after you're gone, gone, gone

[Segunda Parte]

          D5
When you fall like a statue

I'm gon' be there to catch you
        A4
Put you on your feet, you on your feet
        Bm7
And if your well is empty

Not a thing will prevent me
          G9
Tell me what you need, what do you need

[Segunda Parte]

Parte 1 de 4

   D5
E|----------------------------------------------|
B|-------3--------------3-----------------------|
G|---2-----2---2----2-----2---2-----------------| (2x)
D|-0---0-----0----0---0-----0-------------------|
A|----------------------------------------------|
E|----------------------------------------------|

Parte 2 de 4

   A4
E|----------------------------------------------|
B|-------3--------------3-----------------------|
G|---2-----2---2----2-----2---2-----------------| (2x)
D|----------------------------------------------|
A|-0---0-----0----0---0-----0-------------------|
E|----------------------------------------------|

Parte 3 de 4

   Bm7
E|----------------------------------------------|
B|-------3--------------3-----------------------|
G|---2-----2---2----2-----2---2-----------------| (2x)
D|----------------------------------------------|
A|-2---2-----2----2---2-----2-------------------|
E|----------------------------------------------|

Parte 4 de 4

   G9
E|----------------------------------------------|
B|-------3--------------3-----------------------|
G|---2-----2---2----2-----2---2-----------------| (2x)
D|----------------------------------------------|
A|----------------------------------------------|
E|-3---3-----3----3---3-----3-------------------|

[Pré-Refrão]

      G9     D5    A4
I surrender honestly
               G9       D5       A4
You've always done the same for me

[Refrão]

And I would do it 
     G9  D5      Bm7  A4
For yo___u, for yo____u
      G9             D5
Baby, I'm not moving on
               Bm7               A4
I'll love you long after you're gone
     G9  D5      Bm7  A4
For yo___u, for yo____u
          G9           D5
You will never sleep alone
               Bm7               A4
I'll love you long after you're gone
    (pausa)
And long after you're gone, gone, gone

[Ponte]

Bm7                 D5                     G9
    You're my back bone, you're my cornerstone

You're my crutch when my legs stop moving
Bm7                  D5                     G9
    You're my head start, you're my rugged heart

You're the pulse that I've always needed
G9          D5         Bm7        A4
   Like a drum, baby, don't stop beating
G9          D5         Bm7        A4
   Like a drum, baby, don't stop beating
G9          D5         Bm7        A4
   Like a drum, baby, don't stop beating
G9          D5         Bm7        A4
   Like a drum, baby, don't stop beating

[Refrão]

     G9  D5      Bm7  A4
For yo___u, for yo____u
      G9             D5
Baby, I'm not moving on
               Bm7               A4
I'll love you long after you're gone
     G9  D5      Bm7  A4
For yo___u, for yo____u
          G9           D5
You will never sleep alone
               Bm7               A4
I'll love you long after you're gone

     G9  D5      Bm7  A4
For yo___u, for yo____u
      G9             D5
Baby, I'm not moving on
               Bm7               A4
I'll love you long after you're gone
     G9  D5      Bm7  A4
For yo___u, for yo____u
          G9           D5
You will never sleep alone
               Bm7
I'll love you long 
 A4
Long after you're gone

[Final]

D5
   Like a drum, baby, don't stop beating
D5
   Like a drum, baby, don't stop beating
D5
   Like a drum, baby, don't stop beating
D5                                
   Like a drum my heart never stops beating

     D5
For you
                            D/F#  A4/E  D5
I'll love you after you're gone, gone, gone
                                 D/F#  A4/E  D5
I'll love you long after you're gone, gone, gone

[Dedilhado Final]

Parte 1 de 4

   D5             D5             D5
E|----------------------------------------------|
B|-------3--------------3--------------3--------|
G|---2-----2---2----2-----2---2----2-----2---2--|
D|-0---0-----0----0---0-----0----0---0-----0----|
A|----------------------------------------------|
E|----------------------------------------------|

Parte 2 de 4

   D/F#   A4/E
E|----------------------------------------------|
B|-----3------3---------------------------------|
G|---2------2-----------------------------------|
D|-4------2-------------------------------------|
A|----------------------------------------------|
E|----------------------------------------------|

Parte 3 de 4

   D5             D5             D5
E|----------------------------------------------|
B|-------3--------------3--------------3--------|
G|---2-----2---2----2-----2---2----2-----2---2--|
D|-0---0-----0----0---0-----0----0---0-----0----|
A|----------------------------------------------|
E|----------------------------------------------|

Parte 4 de 4

   D/F#   A4/E   D5
E|----------------------------------------------|
B|-----3------3--3------------------------------|
G|---2------2----2------------------------------|
D|-4------2------0------------------------------|
A|----------------------------------------------|
E|----------------------------------------------|
Composición de Derek Fuhrmann / Gregg Wattenberg / Todd Clark
11.866 vistas
  • Simplificar cifrado
    • ½ Tono
    • A
    • Bb
    • B
    • C
    • Db
    • D
    • Eb
    • E
    • F
    • F#
    • G
    • Ab
  • Agregar a la lista

    0 comentarios

    Ver todos los comentarios

    ¿Lograste tocar?

    15 Tocaron 0 Aún no

    ¡Graba un video tocando Gone, Gone, Gone y envíanoslo!

    00:00 / 00:00
    Outros vídeos desta música
    Repetir Calidad Automático
    Outros vídeos desta música
    00:00 / 00:00
    Automático
    OK