Cifra Club

Hazel

Phillip Phillips

Cifrado: Principal (guitarra y guitarra eléctrica)
tono: D
E|---/5--5--------5------5/7--7---------7--------7/10--10-------10------------10--------10-----------
A|-------------------------------------------------------------------------------------------
D|-------------------------------------------------------------------------------------------
G|----------4--4----4------------6--6-------6--------------9--9-------------------9---9-------
B|-------------------------------------------------------------------10---10-------------------
E|-------------------------------------------------------------------------------------------

E|---/5--5--------5------5/7--7---------7--------7/10--10-------10------------------------------
A|-------------------------------------------------------------------------------------------
D|-------------------------------------------------------------------------------------------
G|----------4--4----4------------6--6-------6--------------9--9------9--------------------
B|-------------------------------------------------------------------10-------------------
E|-------------------------------------------------------------------------------------------

Intro: A Bm D4  A Bm D4

[verse1]

(A Bm D4)

 You broke my heart and picked the pieces

 Threw them in the fire to burn

 Left me cold out in the rain

 But now I'm moving on without you baby

 Without you by my side

 I'm finally feeling free

[chorus]


A      Bm
 But I know that


D4 ( Se quiser, quando ele falar "Shine.." desliza o D4 pra 4° casa e volta )
 The sun will shine for me


A     Bm                 D4
 Even when the skies are grey


A      Bm            D4 ( Nessa parte, quando ele fala "Something", se quiser, pode também )
 And I feel like I'm missing something


        A        Bm              D4    D4
 But the bridges build their own way



(A Bm D4)

[verse 2]


 I know you've moved on without me girl

 But I still think

 How the time, it moves so fast

 I still think of how the world

 It goes around and round and round

 But it all stopped when you said

 Not for now, Oooooohhhhhhh

[chorus]


A      Bm
 But I know that


D4 ( Se quiser, quando ele falar "Shine.." desliza o D4 pra 4° casa e volta )
 The sun will shine for me


A     Bm                 D4
 Even when the skies are grey


A      Bm            D4 ( Nessa parte, quando ele fala "Something", se quiser, pode também )
 And I feel like I'm missing something


        A        Bm              D4    D4
 But the bridges build their own way


(A Bm D4)

 Like the ocean washes

 The sand to the shore

 You're like the sun that slips away

 Lips that taste of an angel

 And eyes that bring me to my knees

 And a smile that could set me free

 Just follow me

 Just follow me

 Just follow me, yeah, oohhhhh
Composición de Phillip Phillips
Colaboración y revisión:
  • Guilherme Lima
  • Guilherme Lima
61 vistas
    • ½ Tono
    • A
    • Bb
    • B
    • C
    • Db
    • D
    • Eb
    • E
    • F
    • F#
    • G
    • Ab
  • Agregar a la lista

    0 comentarios

    Ver todos los comentarios

    ¿Lograste tocar?

    4 Tocaron 0 Aún no

    ¡Graba un video tocando Hazel y envíanoslo!

    00:00 / 00:00
    Outros vídeos desta música
    Repetir Calidad Automático
    Outros vídeos desta música
    00:00 / 00:00
    Automático
    OK