Cifra Club

Man On The Moon

Phillip Phillips

Cifrado: Principal (guitarra y guitarra eléctrica)
tono: F# (con acordes en la forma de E) Capotraste en 2ª casa
Intro 3x:

            F#m                         Am
E|--------------------------------|----------------------------------| 
B|--------------------------------|----------------------------------| 
G|---------0^4----0^4----0^4------|--------0^4-----0^4-----0^4-------| 
D|---00^2-----0^2----0^2-----0^2--|---00^2-----0^2-----0^2-----0^2---| 
A|--------------------------------|----------------------------------| 
E|-0------------------------------|-3--------------------------------| 

    Esus2                            C#m7        Dm7
E|--------------------------------|-------2--------0-----------------| 
B|--------------------------------|--------------0-------------------| 
G|---------0^4----0^4----0^4------|-----2------0----------0^4--------| 
D|---00^2-----0^2----0^2-----0^2--|---0------2--------0^2-----0^2----| 
A|-0------------------------------|-2-------3------------------------| 
E|--------------------------------|----------------------------------| 

 Verse    F#m                         Am
E|--------------------------------|----------------------------------| 
B|--------------------------------|----------------------------------| 
G|---------0^4----0^4----0^4------|--------0^4-----0^4-----0^4-------| 
D|---00^2-----0^2----0^2-----0^2--|---00^2-----0^2-----0^2-----0^2---| 
A|--------------------------------|----------------------------------| 
E|-0------------------------------|-3--------------------------------| 

    Esus2                             C#m7        Dm7
E|--------------------------------|-------2--------0-----------------| 
B|--------------------------------|--------------0-------------------| 
G|---------0^4----0^4----0^4------|-----2------0----------0^4--------| 
D|---00^2-----0^2----0^2-----0^2--|---0------2--------0^2-----0^2----| 
A|-0------------------------------|-2-------3------------------------| 
E|--------------------------------|----------------------------------| 

I watched the world from the side of the moon 
Looking at the stars, looking back to you 
Just to see if you were still alive 
Looking at the sun with the fire in your eyes 
It's hard to know where I stand 
Even the man on the moon couldn't tell me where to land 
But I wanted to fly in the sea 
With no gravity to pull me down (2x)

F#m                 A      Esus2
Hold on it won't take long 
                      B7
You can find yourself if you decide to finally start 
F#m                 A        Esus2
Don't run to me when you fall 
                           B7
Cause the steps get bigger so go ahead and walk them off 
F#m          A  C#sus4 Dm7
And you know how I feel 
  F#m             A    C#sus4   Esus2 (Em)
So don't let your life start to slowly waste away 

Intro 
Huh ohh No no 

Verso 2x:
 
So tell me this one thing now listen to me close 
You steal from me but you call it your own 
You liar you thief go make your stand 
on your own two feet 
So oh now oh now listen what your friends say 
Go now go now, go and do it that way 
I'm the one you want to believe 
But in your heart you can't see 


F#m                 A      Esus2
Hold on it won't take long 
                      B7
You can find yourself if you decide to finally start 
F#m                 A        Esus2
Don't run to me when you fall 
                           B7
Cause the steps get bigger so go ahead and walk them off 
F#m          A  C#sus4 Dm7
And you know how I feel 
  F#m             A    C#sus4   Esus2 (Em)
So don't let your life start to slowly waste away 

Ponto 2x: 

F#m Dm7 A              Dm
          Oh let it fall, let it fall 
F#m Dm7 A Dm


F#m                 A      Esus2
Hold on it won't take long 
                      B7
You can find yourself if you decide to finally start 
F#m                 A        Esus2
Don't run to me when you fall 
                           B7
Cause the steps get bigger so go ahead and walk them off 
F#m          A  C#sus4 Dm7
And you know how I feel 
  F#m             A    C#sus4  Esus2 (Em)
So don't let your life start to slowly waste away 

( F#m  A  C#sus4 ) 2x 
( F#m  A  C#sus4  Dm7  A )

( F#m  A  C#sus4 ) 2x 
( F#m  A  C#sus4  B  C#sus4  B )
Composición de Phillip Phillips
Colaboración y revisión:
  • Dean Barker
67 vistas
    • ½ Tono
    • A
    • Bb
    • B
    • C
    • Db
    • D
    • Eb
    • E
    • F
    • F#
    • G
    • Ab
  • Agregar a la lista

    0 comentarios

    Ver todos los comentarios

    ¿Lograste tocar?

    0 Tocaron 0 Aún no

    ¡Graba un video tocando Man On The Moon y envíanoslo!

    00:00 / 00:00
    Outros vídeos desta música
    Repetir Calidad Automático
    Outros vídeos desta música
    00:00 / 00:00
    Automático
    OK