Cifra Club

So Easy

Phillip Phillips

Cifrado: Principal (guitarra y guitarra eléctrica)
tono: G
Intro e Verso
                        G                                       D
E|-------------------------------------|-------------------------------------|
B|----12------12--------12--------12---|----10-------10----------10-------10-|
G|---------------0-------------------0-|----------------0-------------------0|
D|-------------------------------------|-------------------------------------|
A|-10-----10---------10-------10-------|-9--------9----------9--------9------|
E|-------------------------------------|-------------------------------------|

                    Em7                         C
E|-------------------------------------|-------------------------------------|
B|----8------8--------8--------8-------|----1--------1-----------1--------1--|
G|---------------7-------------------7-|----------------0-------------------0|
D|-------------------------------------|-------------------------------------|
A|-7-----7---------7-------7-----------|-3--------3----------3--------3------|
E|-------------------------------------|-------------------------------------|

        G         D                 Em7           C
Like a fall leaf from a tall tree landing on the grass
        G         D                 Em7           C
Like the white sand turns the clock in any hour glass
        G         D                 Em7           C
You're the reason i believe in something i don't know
G
You make it so,
D
You make it so,
Em7              C
You make it so easy
G                  D
This letting go, so beautiful,
Em7              C
Cause you make it so easy,
                  G D     Em7 C
To fall so hard, to fall so hard

        G         D                 Em7             C
Like the ocean pulls the tide and just to hold me close
        G         D                 Em7             C
Like the rainbow in a rainstorm makes the flowers grow
        G         D                 Em7             C
You're the reason i believe in something i don't know

G
You make it so,
D
You make it so,
Em7              C
You make it so easy
G                  D
This letting go, so beautiful,
Em7              C
Cause you make it so easy,
                     G D  Em7 C
To fall so hard, oh oh oh

G
You make it so,
D
You make it so,
Em7              C
You make it so easy, nooo

G
You make it so,
D
You make it so,
Em7              C
You make it so easy
G                  D
This letting go, so beautiful,
Em7              C
Cause you make it so easy,
                     G   D  Em7   C
To fall so hard, oh oh oh

G         D                 Em7                     C
You're the reason i believe in something i don't know
Composición de Pete Salis / Peter Amato / Stephen Wrabel
Colaboración y revisión:
  • PedroOstetti ostetti
  • Pedro
265 vistas
    • ½ Tono
    • A
    • Bb
    • B
    • C
    • Db
    • D
    • Eb
    • E
    • F
    • F#
    • G
    • Ab
  • Agregar a la lista

    0 comentarios

    Ver todos los comentarios

    ¿Lograste tocar?

    4 Tocaron 0 Aún no

    ¡Graba un video tocando So Easy y envíanoslo!

    00:00 / 00:00
    Outros vídeos desta música
    Repetir Calidad Automático
    Outros vídeos desta música
    00:00 / 00:00
    Automático
    OK