Cifra Club

Where We Came From

Phillip Phillips

Cifrado: Principal (guitarra y guitarra eléctrica)
tono: G
Intro 2x:

E||-------------------------------------------------|---|
B||-------------------------------------------------|---|
G||-----9/-----------------------------------------|---|
D||-----9/-----------------------------------------|---|
A||-----7/---------------------0-0--2--2--0-0--|---|
E||--0-0---------0-0---3-3----------------------|---|

E||-------------------------------------------------|---|
B||-------------------------------------------------|---|
G||-----9/---------------------5-5--4-4--0-0---|---|
D||-----9/------------------------------------------|---|
A||-----7/------------------------------------------|---|
E||--0-0---------0-0---0-------------------------|---|

(  Cadd9   G   D   Em  )

Cadd9            D
Climb the mountains, swim for shore
Cadd9          D
Bring it back (to) how it was before

Cadd9          G      D
Take it out, blow it up, ignite the memory in between us
Cadd9            G                 D
Through the storm and all the dust  take out these walls with a cannonball

Cadd9            D     Em       D    Cadd9
But don't let it go, don't give up the ghost (Gold/Goal?)
Cadd9
While staring at the moon and the sun
           D
Just trying to remember where we came from

Cadd9       Em         Cadd9       D   Cadd9    Em    D
(Ohhh ohhh ohhh ohhh, ohhh ohhh ohhh ohhh ohhh ohhh ohhh 2x through)
Composición de Jon Green / Phillip Phillips
Colaboración y revisión:
  • Dean Barker
50 vistas
    • ½ Tono
    • A
    • Bb
    • B
    • C
    • Db
    • D
    • Eb
    • E
    • F
    • F#
    • G
    • Ab
  • Agregar a la lista

    0 comentarios

    Ver todos los comentarios

    ¿Lograste tocar?

    0 Tocaron 0 Aún no

    ¡Graba un video tocando Where We Came From y envíanoslo!

    00:00 / 00:00
    Outros vídeos desta música
    Repetir Calidad Automático
    Outros vídeos desta música
    00:00 / 00:00
    Automático
    OK