Cifra Club

Floral & Fading

Pierce The Veil

Cifrado: Principal (guitarra y guitarra eléctrica)
tono: Db (con acordes en la forma de C) Capotraste en 1ª casa
[Intro]


E|----------------------------------------------|
B|---------1--0-----0-------------1--0-----0----|
G|------0--------0-----0-------0--------0-------|
D|----2----------------------2------------------|
A|-3----------------------3---------------------|
E|----------------------------------------------|

E|----------------------------------------------|
B|---------3--0-----------------3--0------------|
G|-----------------1--------------------1-------|
D|-------2------2-----2-------2------2-----2----|
A|----2---------------------2-------------------|
E|-0---------------------0----------------------|

E|---------0--------------------0---------------|
B|------------3----3---------------3----3-------|
G|------2--------2---2--------2-------2---2-----|
D|----3---------------------3-------------------|
A|----------------------------------------------|
E|-1---------------------1----------------------|

E|-------------------------------|
B|---------1--0------------------|
G|------0------------------------|
D|----2-------------2-----2------|
A|-3-------------3-----3---------|
E|-------------------------------|


C


[Verse 1]

C
Rage in us, your thirst I'm taking,
Em
Pull the plug, I'll keep on shaking.
    F
And thrustin' about your apartment,
                 C
Drowned on the blankets floral and fading.

Painful lust, two aching guts,
     Em
They tear through each other in the mirror.
              F
This happy vacation, there's no motivation,
           C
So hold me up.

[Chorus]

                    Am        G         F
You say you want to chase the moon like fire,
                      Am       G          F
Well, together we can fake our own deaths here,
              Am        G            Bb            G
Just wanna be alone and watch as you all just disappear.
      
        C
Oh, oh, oh

E|----------------------------------------------|
B|---------1--0-----0-------------1--0----------|
G|------0--------0-----0-------0----------------|
D|----2----------------------2-------------2----|
A|-3----------------------3-------------3-------|
E|----------------------------------------------|


[Verse 2]

C
Darker now, kicked out and sleeping in your car,
             Em
You roll the window down, enough to dream and make-believe.
    F
Our lights knocked out, turned upside down,
               C
And I'm just a stupid motherfucker, can't figure it out.

I want devil horns, I wanna breathe in your rush,
        Em
I wanna leap when you want me to fly.
    C          F
But darlin', I don't mean to beg,
                        C
But these thorns on the stem are nearly tearing up my skin.

[Chorus]

                 Am        G         F
So now you wanna chase the moon like fire,
                      Am           G      F
Well, together we can fake our own deaths here,
              Am        G            Bb            G
Just wanna be alone and watch as you all just disappear.

E|-----------------------------------------------------------------|
B|-----------------------------------------------------------------|
G|------0----------------------------------------------------------|
D|--------3-3-2-2-0-0-0-0------------------------------------------|
A|----3-------------------2-2-2-2---------2-2-2-2-0-0-0-0----------|
E|-1------------------------------3-3-3-3-----------------3-3-3-3--|

E|------------------------------------------------------|
B|------------------------------------------------------|
G|------0-----------------------------------------0-----|
D|--------3-3-2-2-0-0-0-0-2-2-2-2-0-0-0-0-0-0--2--------|
A|----3-------------------------------------------------|
E|-1----------------------------------------------------|

G

[Hook]


C
Close your eyes,
        Em
Picture you and I,
        F                C
Selling daylight for gasoline.

C

[Bridge]

                   Am        G         F
So now we're gonna chase the moon like fire,
                      Am           G      F
Yeah, together we can fake our own deaths here,
              Am        G            Em       F     Am
Just wanna be alone and watch as you all just disappear.

[Outro]

G       Em
Whoa-oh-oh,
     F        Am       G       F
Just wanna be alone and watch...
             G   Am       G     F     C
Why can't we be alone and watch?
Composición de Vic Fuentes
Colaboración y revisión:
  • Isabella Muniz
256 vistas
    • ½ Tono
    • A
    • Bb
    • B
    • C
    • Db
    • D
    • Eb
    • E
    • F
    • F#
    • G
    • Ab
  • Agregar a la lista

    0 comentarios

    Ver todos los comentarios
    00:00 / 00:00
    Outros vídeos desta música
    Repetir Calidad Automático
    Outros vídeos desta música
    00:00 / 00:00
    Automático
    OK