Cifra Club

Asheville

Pinhead Gunpowder

Cifrado: Principal (guitarra y guitarra eléctrica)
tono: C
 Intro:
e|------------------------|----------------------------|
B|------------------------|----------------------------|
G|--7-------7-------------|-----------555555-----------|
D|--7---7---5---77----(x2)|--555555---555555---777777--|
A|--5---7---5---77--------|--555555---333333---777777--|
E|------5-------55--------|--333333------------555555--|

   Verse 1:
e|--------------------------------------------------------------------|
B|--------------------------------------------------------------------|
G|--777777---555555---777777---555555------------777777---5555555555--|
D|--777777---555555---777777---555555---777777---777777---5555555555--|
A|--555555---333333---555555---333333---777777---555555---3333333333--|
E|--------------------------------------555555------------------------|

   Verse 2:
e|---------------------------|
B|---------------------------|
G|--777777----------55-------|
D|--777777---7777---55---(x3)| 
A|--555555---7777---33-------|  "poison the reservior, and then I'm gonna kiss you."
E|-----------5555------------|

   Verse 3:
e|------------------------|
B|------------------------|
G|--777777---555555-------|
D|--777777---555555---(x4)|
A|--555555---333333-------|
E|------------------------|

   Verse 4:
e|---------------------------|
B|---------------------------|
G|------------------55-------|
D|--777777---5555---55---(x3)| deixar soar quando ele canta...
A|--777777---5555---33-------|  "When it's actually open."
E|--555555---3333------------|

   Solo:
e|---------------------------------------------------|---------------------------------|
B|---------------------------------------------------|---------------------------------|
G|---777777---555555---777777555555------------555555-----------------|--7-------------| 
D|---777777---555555---777777555555------777777------555555---777777---------(x2)------|--77--- uma vez só!
A|---555555---333333---555555333333------777777------333333---777777---------|----57---|
E|---------------------------555555------------555555|--------5------------------------|

   Verse 5:
e|--------------------------------------------|
B|--------------------------------------------|
G|--777777---555555-----------------555555----|
D|--777777---555555---(x2)-777777---555555---7|  
A|--555555---333333--------777777---333333---7|  "Up in my attic."
E|-------------------------555555------------5|
00:00 / 00:00
Otros videos de esta canción
Repetir
Otros videos de esta canción
Composición de Billie Joe
Colaboración y revisión:
  • Rodolpho Fernando
12 exhibiciones
    • ½ Tono
    • A
    • Bb
    • B
    • C
    • Db
    • D
    • Eb
    • E
    • F
    • F#
    • G
    • Ab
  • Agregar a la lista
    00:00 / 00:00
    OK