Cifra Club

Brother

Pinhead Gunpowder

Cifrado: Principal (guitarra y guitarra eléctrica)
tono: D
   INTRO
 e|-------------|
 B|-------------|
 G|--7-7-7-7-7--|
 D|--7-7-7-7-7--|
 A|--5-5-5-5-5--|
 E|-------------|
    [palm muted]

   VERSE
 e|----------------------------------------------|
 B|----------------------------------------------|
 G|--7-7-------------------7-7-------------------|
 D|--7-7--7-7--5-5--9-9----7-7--7-7--5-5-5-5-----|
 A|--5-5--7-7--5-5--9-9----5-5--7-7--5-5-5-5-----|
 E|-------5-5--3-3--7-7---------5-5--3-3-3-3-----| x2
    [....palm muted....]
   "Well, once I had a brother..."

   CHORUS
 e|---------------------------------------|
 B|---------------------------------------|
 G|--7-7-7-7-7-7-7------------------------|
 D|--7-7-7-7-7-7-7--7-7-7-7--5-5-5-5------|
 A|--5-5-5-5-5-5-5--7-7-7-7--5-5-5-5------|
 E|-----------------5-5-5-5--3-3-3-3------|
   "He would find a way..."


   CHORUS 1 END (Guitar 2)
 e|--------------------------|
 B|--------------------------|
 G|--------------------------|
 D|--9-9-9-9--11--7----------|
 A|--x-x-x-x--x---x----------|
 E|--7-7-7-7--9---5----------|


 VERSE
 CHORUS (with short pauses) x2
 CHORUS
 VERSE (faster)

 e|----------------------------|
 B|----------------------------|
 G|--7-7-----------------------|
 D|--7-7--7-7--9-9-9--7--5-5---|
 A|--5-5--7-7--9-9-9--7--5-5---|
 E|-------5-5--7-7-7--5--3-3---| x4
   "But every other dog..."

 ...pause...
00:00 / 00:00
Otros videos de esta canción
Repetir
Otros videos de esta canción
Composición de Quitty
Colaboración y revisión:
  • Rodolpho Fernando
8 exhibiciones
    • ½ Tono
    • A
    • Bb
    • B
    • C
    • Db
    • D
    • Eb
    • E
    • F
    • F#
    • G
    • Ab
  • Agregar a la lista
    00:00 / 00:00
    OK