Cifra Club

MPLS Song

Pinhead Gunpowder

Cifrado: Principal (guitarra y guitarra eléctrica)
tono: D
Intro/Verse                                       
|------------------------------------------------------------------|
|------------------------------------------------------------------|
|------------------------------------------------------------------|
|--9-9-9-9-9-9-9-9--7-7-7-7-7-7-7-7--2-2-2-2-2-2-2-2--7--7--7--7---|
|--9-9-9-9-9-9-9-9--7-7-7-7-7-7-7-7--2-2-2-2-2-2-2-2--7--7--7--7---|
|--7-7-7-7-7-7-7-7--5-5-5-5-5-5-5-5--0-0-0-0-0-0-0-0--5--5--5--5---|

Iggy Pop is playing downtown
And I'm outisde in the rain
Listening and lurking around
It's another dreary night

(w/dist)
|----------------------------------------------------------------|
|----------------------------------------------------------------|
|----------------------------------------------------------------|
|--9-9-9-9-9-9-9-9--7-7-7-7-7-7-7-7--2-2-2-2--7--7--7--7---------|
|--9-9-9-9-9-9-9-9--7-7-7-7-7-7-7-7--2-2-2-2--7--7--7--7---------|
|--7-7-7-7-7-7-7-7--5-5-5-5-5-5-5-5--0-0-0-0--5--5--5--5---------|

and I'm waiting for the 6C bus
To come and get me
Broke and cold and lonely
10:00 P.M., I'm only starting to wake up
Creeps are trying to talk to me
But I wait soaking silently
And shiny lights are shining down on me

Chorus: (w/dist)
|-----------------------------------------------------------------|
|-----------------------------------------------------------------|
|-----------------------------------------------------------------|
|--9-9-9-9-9-9-9-9--7-7-7-7-7-7-7-7--2-2-2-2--7-7-7-7--9-9-9-9----|
|--9-9-9-9-9-9-9-9--7-7-7-7-7-7-7-7--2-2-2-2--7-7-7-7--9-9-9-9----|
|--7-7-7-7-7-7-7-7--5-5-5-5-5-5-5-5--0-0-0-0--5-5-5-5--7-7-7-7----|

Broke and lonely, cold and hungry
And though it may sound funny
I'm doing alright
It's another dreary night

Ending (ultimo verso)

|-----------------------------------------------------------------|
|-----------------------------------------------------------------|
|-----------------------------------------------------------------|
|--9-9-9-9-9-9-9-9--7-7-7-7-7-7-7-7--2-2-2-2-2-2-2-2-7-7-7-7-7-7-7|
|--9-9-9-9-9-9-9-9--7-7-7-7-7-7-7-7--2-2-2-2-2-2-2-2-7-7-7-7-7-7-7|
|--7-7-7-7-7-7-7-7--5-5-5-5-5-5-5-5--0-0-0-0-0-0-0-0-5-5-5-5-5-5-5|

Sometimes it's what you love most that sufocates you
Sometimes it's good to give friends a chance to miss you
Well home is far away now
But I remember how
Sometimes it was cold and lonely too.....

termina com A5 (577)
00:00 / 00:00
Otros videos de esta canción
Repetir
Otros videos de esta canción
Composición de Pinhead Gunpowder
Colaboración y revisión:
  • Rodolpho Fernando
15 exhibiciones
    • ½ Tono
    • A
    • Bb
    • B
    • C
    • Db
    • D
    • Eb
    • E
    • F
    • F#
    • G
    • Ab
  • Agregar a la lista
    00:00 / 00:00
    OK