Cifra Club

A Pillow Of Winds

Pink Floyd

Tablatura: Principal (guitarra)
Tom: D
Notation:
/12: slide up to 12
(10 : slide down from 10
7(: slide down to 7
5/7: slide up from 5 to 7
7(5: slide down from 7 to 5
5///8: slow slide up
7(((4: slow slide down
2/slow/7: even slower up slide


Intro
E |-----/12----7(5///7--|--10/12-12---11---7(((4-4/5-5(4-----------|
B |---------------------|---------------------------------5/7------|
G |---------------------|------------------------------------------|
D |---------------------|------------------------------------------|
A |---------------------|------------------------------------------|
E |---------------------|------------------------------------------|


   ..eiderdown..             .. The sound
E |---/12-------17------|--10/12-12(11------7(((4-4/5-5(4----------|
B |---------------------|----------------------------------7-------|
G |---------------------|------------------------------------------|
D |---------------------|------------------------------------------|
A |---------------------|------------------------------------------|
E |---------------------|------------------------------------------|


  .. I lie                   low..
E |----------2/7(2------------------2/slow/----5/7-----------------|
B |------------------7/9(7--5/7----------------------------7///10--|
G |----------------------------------------------------------------|
D |----------------------------------------------------------------|
A |----------------------------------------------------------------|
E |----------------------------------------------------------------|


E |--10-10-10/12-12---10-10-10/12-12--10-10/12-12---14-12(10--10(7-|
B |--10-10-10/12------10-10-10/12-----------------12---------------|
G |----------------------------------------------------------------|
D |----------------------------------------------------------------|
A |----------------------------------------------------------------|
E |----------------------------------------------------------------|


 When night..                 ..floor
E |------------------------------------------7/12--12--10--10(7----|
B |--7/8----8/10----10/12---12(10---8(7----------------------------|
G |----------------------------------------------------------------|
D |----------------------------------------------------------------|
A |----------------------------------------------------------------|
E |----------------------------------------------------------------|


 As darkness..            ..warm
E |-------------------------7/12---------7/12------12/14---14/15---|
B |-7/8----8/10----10/12-----------8/10----------------------------|
G |----------------------------------------------------------------|
D |----------------------------------------------------------------|
A |----------------------------------------------------------------|
E |----------------------------------------------------------------|


 Now wakes..               ..gone
E |--15(12--12(10--------------------------------------------------|
B |--------------------------------------7/9--7--5/7(5----3/5------|
G |----------------------------------------------------------------|
D |----------------------------------------------------------------|
A |----------------------------------------------------------------|
E |----------------------------------------------------------------|


   Green fields...                             ...dawn.
E |---5/7---5--5(3----5/slow/---5/7--7----5(3------3/5-------------|
B |----------------------------------------------------------------|
G |----------------------------------------------------------------|
reproducciones 1.290
Acordes para:

    0 comentarios

    mostrar más comentarios

    ¿Conseguiste tocar?

    0 tocaron 3 aún no

    ¡Graba un vídeo tocando A Pillow Of Winds y envianoslo!

    00:00 / 00:00
    outros vídeos desta música
    repetir qualidade Automático
    Outros vídeos desta música
    00:00 / 00:00
    Automático
    OK