Cifra Club

Another Brick In The Wall, Part 2

Pink Floyd

Cifrado: Principal (guitarra y guitarra eléctrica)
tono: C
[Primeira Parte]

Guitarra 1

   Dm
E|-5--5---5-5---5-5-------------------------|
B|-6--6---6-6---6-6-------------------------|
G|-7--7---7-7---7-7-------------------------|
D|-7--7---7-7---7-7-------------------------|
A|-5--5---5-5---5-5-------------------------|
E|------------------------------------------|
   ↓  ↓   ↓ ↑    ↓ ↑ 

Guitarra 2

E|------------------------------------------|
B|------------------------------------------|
G|-7---9--10---9----------------------------|
D|------------------------------------------|
A|-5---7--8----7----------------------------|
E|------------------------------------------|

E|------------------------------------------|
B|------------------------------------------|
G|-7---9--10~-------------------------------|
D|------------------------------------------|
A|-5---7--8~--------------------------------|
E|------------------------------------------|

                         Dm
We dont need no education
                 
We dont need no thought control
                 
No dark sarcasm in the classroom
           
Teachers leave them kids alone

[Segunda Parte]

Guitarra 1

   G
E|-3-3-3-3-3-3-3---3-3-3---3-3-3------------|
B|-3-3-3-3-3-3-3---3-3-3---3-3-3------------|
G|-4-4-4-4-4-4-4---4-4-4---4-4-4------------|
D|-5-5-5-5-5-5-5---5-5-5---5-5-5------------|
A|------------------------------------------|
E|------------------------------------------|
   ↓ ↑ ↓ ↑ ↓ ↑ ↓    ↓ ↑ ↓    ↓ ↑ ↓

E|-5---5-5---10---8-------------------------|
B|-6---6-6---10---8-------------------------|
G|-7---7-7---10---9-------------------------|
D|-7---7-7----------------------------------|
A|-5---5-5----------------------------------|
E|------------------------------------------|
   ↓   ↓ ↑    ↓    ↑

E|-10---10---8---8---7-7-7---5--------------|
B|-10---10---8---8---8-8-8---6--------------|
G|-10---10---9---9---7-7-7---5--------------|
D|------------------------------------------|
A|------------------------------------------|
E|------------------------------------------|
   ↓    ↑    ↓   ↓    ↓ ↑ ↓   ↓

   F
E|-1-----1---x-x-1---x-x-1------------------|
B|-1-----1---x-x-1---x-x-1------------------|
G|-2-----2---x-x-2---x-x-2------------------|
D|-3-----3---x-x-3---x-x-3------------------|
A|------------------------------------------|
E|------------------------------------------|
   ↓     ↓   ↓ ↑ ↓    ↓ ↑ ↓

   C
E|------------------------------------------|
B|-5-----5---x-x-5---x-x-5------------------|
G|-5-----5---x-x-5---x-x-5------------------|
D|-5-----5---x-x-5---x-x-5------------------|
A|-3-----3---x-x-3---x-x-3------------------|
E|------------------------------------------|
   ↓     ↓    ↓ ↑ ↓   ↓ ↑ ↓

   Dm
E|-5--5---5-5---5-5-------------------------|
B|-6--6---6-6---6-6-------------------------|
G|-7--7---7-7---7-7-------------------------|
D|-7--7---7-7---7-7-------------------------|
A|-5--5---5-5---5-5-------------------------|
E|------------------------------------------|
   ↓  ↓   ↓ ↑    ↓ ↑ 

   Dm
E|-5--5---5-5---5-5-------------------------|
B|-6--6---6-6---6-6-------------------------|
G|-7--7---7-7---7-7-------------------------|
D|-7--7---7-7---7-7-------------------------|
A|-5--5---5-5---5-5-------------------------|
E|------------------------------------------|
   ↓  ↓   ↓ ↑    ↓ ↑ 

   F
E|-1-----1---x-x-1---x-x-1------------------|
B|-1-----1---x-x-1---x-x-1------------------|
G|-2-----2---x-x-2---x-x-2------------------|
D|-3-----3---x-x-3---x-x-3------------------|
A|------------------------------------------|
E|------------------------------------------|
   ↓     ↓   ↓ ↑ ↓    ↓ ↑ ↓

   C
E|------------------------------------------|
B|-5-----5---x-x-5---x-x-5------------------|
G|-5-----5---x-x-5---x-x-5------------------|
D|-5-----5---x-x-5---x-x-5------------------|
A|-3-----3---x-x-3---x-x-3------------------|
E|------------------------------------------|
   ↓     ↓    ↓ ↑ ↓   ↓ ↑ ↓

   Dm
E|-5----------------------------------------|
B|-6----------------------------------------|
G|-7----------------------------------------|
D|-7----------------------------------------|
A|-5----------------------------------------|
E|------------------------------------------|
   ↓

Guitarra 2
   
   F5 G5 
E|------------------------------------------|
B|------------------------------------------|
G|-10/12------------------------------------|
D|-10/12------------------------------------|
A|--8/10------------------------------------|
E|------------------------------------------|
   ↓

   G5
E|------------------------------------------|
B|------------------------------------------|
G|-12-12-12-12------------------------------|
D|-12-12-12-12------------------------------|
A|-10-10-10-10------------------------------|
E|------------------------------------------|
   ↓  ↑  ↓  ↑

   F5  G5  D5
E|------------------------------------------|
B|------------------------------------------|
G|-----5---7--------------------------------|
D|-3---5---7--------------------------------|
A|-3---3---5--------------------------------|
E|-1----------------------------------------|
   ↓   ↓   ↓  

G                                 Dm 
  Hey! Teacher! Leave them kids alone
F                          
  All in all it's just    
C                       Dm
  Another brick in the wall
F                          
  All in all you're just    
C                       Dm
  Another brick in the wall

[Primeira Parte]

                          Dm
We dont need no education

We dont need no thought control

No dark sarcasm in the classroom

Teachers leave them kids alone

[Segunda Parte]

G                                 Dm 
  Hey! Teacher! Leave them kids alone
F                          
  All in all you're just    
C                       Dm
  Another brick in the wall
F                          
  All in all you're just    
C                       Dm
  Another brick in the wall

[Solo]

E|----------------------------------------------------|
B|-13p10----10-------15-13b15---10-10-x-10/-----------|
G|-------12----12/14------------10-10-x-10/-----------|
D|----------------------------------------------------|
A|----------------------------------------------------|
E|----------------------------------------------------|

E|----------------------------------------------------|
B|-13-b15-b17-r15-r13~---13p10------------------------|
G|-----------------------------12-12b14~--------------|
D|----------------------------------------------------|
A|----------------------------------------------------|
E|----------------------------------------------------|

E|----------------------------------------------------|
B|------------------------10-x-x-10-10----------------|
G|-10p9----9-------10-----10-x-x-10-10----------------|
D|------12---10/12----12~-----------------------------|
A|----------------------------------------------------|
E|----------------------------------------------------|

E|----------------------------------------------------|
B|-10-10----10-10----12-12-10\------------------------|
G|-10-10----10-10----12-12-10\------------------------|
D|-------12-------12----------------------------------|
A|----------------------------------------------------|
E|----------------------------------------------------|

E|-----13b15---13-13----------------------------------|
B|---x----------------13-b15-b17-b18-r13-b15----------|
G|--x-------------------------------------------------|
D|-x--------------------------------------------------|
A|----------------------------------------------------|
E|----------------------------------------------------|

E|----------10----------------------------------------|
B|-------10----13p10----------------------------------|
G|-12b14-------------12--b14r12p10--12p10-----10p7----|
D|----------------------------------------12-------10-|
A|----------------------------------------------------|
E|----------------------------------------------------|

E|----------------------------------------------------|
B|----------------------------------------------------|
G|-7p5------------------------------------------------|
D|-----7--10p7----------------------------------------|
A|-------------10--10p8----------10p8-----------------|
E|----------------------10-8-10-------10-8-10\--------|

E|----------------------------------------------------|
B|---------5h6p5--------------------6b----------------|
G|-----5-7-------7-7p5----5/7-7-7p5-------------------|
D|-5/7-----------------7------------------------------|
A|----------------------------------------------------|
E|----------------------------------------------------|

E|----------------------------------------------------|
B|-13b15--13-b15-b17-r15-r13~-------------------------|
G|----------------------------------------------------|
D|----------------------------------------------------|
A|----------------------------------------------------|
E|----------------------------------------------------|

E|-----15b17--13-----------13----15b17~-17r15---------|
B|---x-----------15--13/15----15--------------15~-----|
G|--x-------------------------------------------------|
D|-x--------------------------------------------------|
A|----------------------------------------------------|
E|----------------------------------------------------|

E|-17b20-20---20b22--20-17--20p17---------------------|
B|----------------------------------------------------|
G|----------------------------------------------------|
D|----------------------------------------------------|
A|----------------------------------------------------|
E|----------------------------------------------------|

E|----------------------------------------------------|
B|-------------------------12-----10-----12--12\10~---|
G|-10-10-10----------------12-----10-----12--12\10~---|
D|----------12~--12-12--------x-x----x-x--------------|
A|----------------------------------------------------|
E|----------------------------------------------------|

E|----------------------------------------------------|
B|----------------------------------------------------|
G|-x-x-10p7-x-x--7------------------------------------|
D|------------------5-5p3-x-x-3p0---------------------|
A|----------------------------------------------------|
E|----------------------------------------------------|
Composición de Roger Waters
18.480 vistas
    • ½ Tono
    • A
    • Bb
    • B
    • C
    • Db
    • D
    • Eb
    • E
    • F
    • F#
    • G
    • Ab
  • Agregar a la lista

    0 comentarios

    Ver todos los comentarios
    00:00 / 00:00
    Outros vídeos desta música
    Repetir Calidad Automático
    Outros vídeos desta música
    00:00 / 00:00
    Automático
    Capítulos
    • Início - Vinheta Dia Mundial do Rock
    • Tocando a música
    • Dicas e acorde da Primeira Parte
    • Tocando Primeira Parte
    • Exercícios de Preparação
    • Ensinando Primeira Parte: Guitarra 1
    • Ensinando Primeira Parte: Guitarra 2
    • Acordes da Segunda Parte
    • Tocando Segunda Parte
    • Ensinando Segunda Parte: Guitarra 1
    • Ensinando Segunda Parte: Guitarra 1 (Parte 1)
    • Ensinando Segunda Parte: Guitarra 1 (Parte 2 e 3)
    • Ensinando Segunda Parte: Guitarra 1 (Parte 4 - 7)
    • Power Chords Segunda Parte: Guitarra 2
    • Ensinando Segunda Parte: Guitarra 2
    • Dicas para o Solo
    • Tocando Solo
    • Dicas - Pedais
    • Ensinando Solo (Parte 1)
    • Ensinando Solo (Parte 2)
    • Ensinando Solo (Parte 3)
    • Ensinando Solo (Parte 4)
    • Ensinando Solo (Parte 5)
    • Ensinando Solo (Parte 6)
    • Ensinando Solo (Parte 7)
    • Ensinando Solo (Parte 8)
    • Ensinando Solo (Parte 9)
    • Ensinando Solo (Parte 10)
    • Ensinando Solo (Parte 11)
    • Tocando Solo (Tablatura)
    • Encerramento
    OK