Cifra Club

Aprenda

Atom Heart Mother

Pink Floyd

Tablatura: Versão 4 (guitarra)
Tom: C
Tabbed by:Rhys Gerwin (the_piper)
Email:*

Tuning: Standard

(Breast Milky Solo) or some people say (Father's Shout)
e|-----12-----------5---------7-----7-----7-------7/4-----------|
B|-/12----12---8/9----5---/8----8-----------7----------4----4/3-|
G|----------------------5---------7----7------7----------4------|
D|--------------------------------------------------------------|
A|--------------------------------------------------------------|
E|--------------------------------------------------------------|
                          W bar (Screeching Part)
e|-----------3------(2)--------|-12-14-14/15----15/17-19-20-19-|
B|-/4---4--------1------4-(0)/-|-------------------------------|
G|--------3--------------------|-------------------------------|
D|-----------------------------|-------------------------------|
A|-----------------------------|-------------------------------|
E|-----------------------------|-------------------------------|
                W bar
e|-19-19-19--19-19b17-19--19-19/--16-----16-------------------|
B|------------------------------------16----15-15-16-18-18/20-|
G|------------------------------------------------------------|
D|------------------------------------------------------------|
A|------------------------------------------------------------|
E|------------------------------------------------------------|
                           W bar
e|-------------17-17/19-19-19b17-19/----------------17-17/15----|
B|-20-20-20-20-----------------------17-17-17-19-20----------15-|
G|--------------------------------------------------------------|
D|--------------------------------------------------------------|
A|--------------------------------------------------------------|
E|--------------------------------------------------------------|

e|-15-19-19b17-19/16-------------------------------------------|
B|--------------------16----16-15-15-15/10/14------------------|
G|-----------------------16----15-15-15/10/14---------14/15-15-|
D|--------------------------------------------13/17------------|
A|-------------------------------------------------------------|
E|-------------------------------------------------------------|

e|----------------|
B|----------------|
G|-15/17-19-19/12-|
D|----------------|
A|----------------|
E|----------------|

| /  slide (there's no reason for both of them)
| h  hammer-on
| p  pull-off
| ~  vibrato
| +  harmonic
| x  Mute note
| b  bend
|(?) ghost note

I think some of the notes my be off by a bit but I'm too lazy to
find out.
Compositor David Gilmour / Nick Mason / Richard Wright / Roger Waters / Ron Geesin
5 reproducciones
    • ½ Tom
    • A
    • Bb
    • B
    • C
    • Db
    • D
    • Eb
    • E
    • F
    • F#
    • G
    • Ab
  • Adicionar à lista

    0 comentarios

    Mostrar mais comentários
    00:00 / 00:00
    outros vídeos desta música
    repetir qualidade Automático
    Outros vídeos desta música
    00:00 / 00:00
    Automático
    OK