Cifra Club

Breathe Reprise

Pink Floyd

Tablatura: Principal (guitarra)
Tom: G
Intro 2x: Em9  A
    Em                  A
E|---0---|---0---0---|---0---0---|----------------------|
B|---0---|---0---0---|---2---2---|--14-------12---11----|
G|---0---|---0---0---|---2---2---|--0--(5x)--0----0-----|
D|---2---|---2-------|---2-------|--14-------12---10----|
A|---2---|---2-------|---0-------|----------------------|
E|---0---|---0-------|---0-------|----------------------|

Em         A
Home, home again
Em                      A
I like to be here when I can
Em                       A
When I come home cold and tired
Em                                   A
It's good to warm my bones beside the fire
C7+/G
Far away across the field
Bm
The tolling of the iron bell
F7M
Calls the faithful to their knees
G/D                  D7#9   D7(9-)     Bm
To hear the softly spoken magic spells
     C7+/G    Bm      F7+      G      D7#9    D7(9-)
E|---0---|---2---|---0---|---x---|---x---|---x---|
B|---0---|---3---|---1---|---3---|---6---|---4---|
G|---0---|---4---|---2---|---4---|---5---|---5---|
D|---2---|---4---|---3---|---5---|---4---|---4---|
A|---3---|---2---|---x---|---5---|---5---|---5---|
E|---3---|---x---|---x---|---x---|---x---|---x---|
reproducciones 371
Acordes para:
    Colaboración y revision:
    • Eduardo Filho
    • 22222
    • Flávio Henriques

    0 comentarios

    mostrar más comentarios

    ¿Conseguiste tocar?

    5 tocaron 0 aún no

    ¡Graba un vídeo tocando Breathe Reprise y envianoslo!

    00:00 / 00:00
    outros vídeos desta música
    repetir qualidade Automático
    Outros vídeos desta música
    00:00 / 00:00
    Automático
    OK