Cifra Club

Dramatic Theme

Pink Floyd

Tablatura: Principal (guitarra)
Tom: D
bass Intro:

E |-|--------------------------------------------------------------------------------------|
B |-|--------------------------------------------------------------------------------------|
G |-|--------------------------------------------------------------------------------------|
D |-|-------5---------3----------5---------3---------5-----------5--------3-------5------3-|
A |-|--------------------------------------------------------------------------------------|
E |-|---3-------3-3-------3-3-------3-3-------3-3-------3--3-------3-3-----3-3-----3-3-----|


E |-|----------------------------------------------------------------------------------|
B |-|----------------------------------------------------------------------------------|
G |-|----------------------------------------------------------------------------------|
D |-|------5----------5-------3--------5--------3--------5---------5---------7-----10\-|
A |-|----------------------------------------------------------------------------------|
E |-|--3-------3--3------3-3-----3-3------3-3------3-3------3--3------3-3--------------|

cont. bass similie

Guitar (cuts in):


w/slide............................................. .............................
E |-|--15-\13---------15-\13----------17-\15----------17-\15---------------------------|
B |-|------------------------11--------------15--------------15\--11----------15\--8-8-|
G |-|----------------------------------------------------------------------------------|
D |-|----------------------------------------------------------------------------------|
A |-|----------------------------------------------------------------------------------|
E |-|----------------------------------------------------------------------------------|


dive w/bar release bar b r b r b r b
E |-|----------------------------------------------------------------------------------|
B |-|-----------8-(7)---(4)*-5----------2--------5(6)5---5-3--5(6)5(6)5---2-(3)--------|
G |-|----------------------------------------------------------------------------------|
D |-|----------------------------------------------------------------------------------|
A |-|----------------------------------------------------------------------------------|
E |-|----------------------------------------------------------------------------------|
*pick note while bar
is down, then release.


  b b r b r b r b b
E |-|---------------------------------------------------------------------------------|
B |-|-------5-(7)---10(11)10-(13)------(13)10---8--------10(11)10(11)---10(11)--------|
G |-|---------------------------------------------------------------------------------|
D |-|---------------------------------------------------------------------------------|
A |-|---------------------------------------------------------------------------------|
E |-|---------------------------------------------------------------------------------|


  sl. sl. sl. dive w/bar b
E |-|--------------------------------------------------------------------------------|
B |-|--8--10--11--13---/15-----/18-18-18/20-20-20-20-(19)~~------17-18--18-(20)------|
G |-|--------------------------------------------------------------------------------|
D |-|--------------------------------------------------------------------------------|
A |-|--------------------------------------------------------------------------------|
E |-|--------------------------------------------------------------------------------|


  w/slide....................... b b
E |-|---17-\15-----------17-\15------------------------------------------------------|
B |-|-----------15----------------15\---11-11* --13-(15)-----13-13-11----10-11-(13)--|
G |-|--------------------------------------------------------------------------------|
D |-|--------------------------------------------------------------------------------|
A |-|--------------------------------------------------------------------------------|
E |-|--------------------------------------------------------------------------------|
*echo

  r b b r sl.
E |-|--------------------------------------------------------------------------------|
B |-|--(13)11--10--7-(8)-------------14(15)-(15)-(15)-(15)14---------15--16\15---10--|
G |-|--------------------------------------------------------------------------------|
D |-|--------------------------------------------------------------------------------|
A |-|--------------------------------------------------------------------------------|
E |-|--------------------------------------------------------------------------------|


  r b b sl. b b
E |-|--------------------------------------------------------------------------------|
B |-|--10-11--(12)11-----7-(8)-------11---8---7p5---3--1--1-(3)------3/5--5(6)-5(6)--|
G |-|--------------------------------------------------------------------------------|
D |-|--------------------------------------------------------------------------------|
A |-|--------------------------------------------------------------------------------|
E |-|--------------------------------------------------------------------------------|

w/echo.............................................. .................
r b

E |-|--------------------------------------------------------------------------------|
B |-|-----(6)5--3----------8----------11-(11)------8-8----5----13-13-----------------|
G |-|--------------------------------------------------------------------------------|
D |-|--------------------------------------------------------------------------------|
A |-|--------------------------------------------------------------------------------|
E |-|--------------------------------------------------------------------------------|
(echo repeats to fade out)
reproducciones 73
Acordes para:

    0 comentarios

    mostrar más comentarios

    ¿Conseguiste tocar?

    0 tocaron 0 aún no

    ¡Graba un vídeo tocando Dramatic Theme y envianoslo!

    00:00 / 00:00
    outros vídeos desta música
    repetir qualidade Automático
    Outros vídeos desta música
    00:00 / 00:00
    Automático
    OK