Cifra Club

Fearless

Pink Floyd

Tablatura: Principal (guitarra)
Tom: G
Afinação: D  G  D  G  B  D

[Intro]

   G
E|-0----0-0-0-0---------0-0-0-0---------|
B|--0---0-0-0-0-0-1-1-0-0-0-0-0-1-0-----|
G|---0--0-----0---------0-----0-----2-0-|(2x)
D|----0-0-----0---------0-----0---------|
A|-----00-----0---------0-----0---------|
E|--------------------------------------|

[Riff 1]

                                            G
E|-------------------------------------------0-0-0-0---------0-0---|
B|-------------------------------------------0-0-0-0-1-0-----0-0---|
G|---------4-0-0-5-0-0-7-0-0-9-0-0-11-0-12\0-0-----0-----2-0-0-0---|(3x)  
D|-0-0-0-0-----------------------------------0-----0---------0-0---|
A|---------4-0-0-5-0-0-7-0-0-9-0-0-11-0-12\0-0-----0---------0-0---|
E|-----------------------------------------------------------------|

  G                                    C Bb
You say the hill's too steep to climb
  G         C Bb
Climb it!
  G                                C Bb
You say you'd like to see me try
  G       C Bb
Climb it!
  A                                      D
You pick the place and I'll choose the time
           G                    C
And I'll climb that hill in my own way
  G                          C
Just wait a while, for the right day
           G              C
And as I rise above the treeline and the clouds
         D              C                            G
I look down, hear the sound of the things you said today

( D/F#  C/E  D/F#  C/E )
( D/F#  C/E  D/F#  C/E )
( G  D  Bb  G  D  Bb )

 G                                    D Bb
Fearlessly the idiot faced the crowd
 G      D Bb
Smiling
 G                                    D Bb
Merciless, the magistrate turns round
 G
Frowning
 A                                 D
And who's the fool who wears the crown
        G            C
And go down in your own way
     G                C
And everyday is the right day
     G                      C
And as you rise above the fearlines in the frown
           D
You look down
            C                        G
Hear the sound of the faces in the crowd
reproducciones 2.011
Acordes para:
    Composição: David Gilmour / Roger Waters Colaboración y revision:
    • Bruno Monteiro
    • B Pontes
    • Murilo Gomide

    0 comentarios

    mostrar más comentarios

    ¿Conseguiste tocar?

    14 tocaron 0 aún no

    ¡Graba un vídeo tocando Fearless y envianoslo!

    00:00 / 00:00
    outros vídeos desta música
    repetir qualidade Automático
    Outros vídeos desta música
    00:00 / 00:00
    Automático
    OK