Cifra Club

High Hopes

Pink Floyd

Tablatura: Principal (guitarra)
reproducciones 8.715
Tono: Cm
[Intro] C5  Eb5  Ab5 
        C5  Eb5  Ab5 

   C5      Eb5      Ab5       C5      Eb5      Ab5
E|-15-15---18--18---11--11----15-15---18--18---11--11-|
B|-13-13---16--16---9---9-----13-13---16--16---9---9--|
G|----------------------------------------------------|
D|----------------------------------------------------|
A|----------------------------------------------------|
E|----------------------------------------------------|

   C5      Eb5      Ab5       C5      Eb5      Ab5
E|-15-15---18--18---11--11----15-15---18--18---11--11-|
B|-13-13---16--16---9---9-----13-13---16--16---9---9--|
G|----------------------------------------------------|
D|----------------------------------------------------|
A|----------------------------------------------------|
E|----------------------------------------------------|

[Primeira Parte]

   Cm       Eb       Ab      Cm       Eb       Ab
E|-3--3-----6--6-------------3--3-----6--6------------|
B|----------4--4-----4--4-------------4--4-----4--4---|
G|-5--5-----5--------5--5----5--5-----5--------5--5---| (2x)
D|-------------------6--6----------------------6--6---|
A|----------------------------------------------------|
E|----------------------------------------------------|

Cm             Eb 
 Beyond the horizon 
         Ab
Of the place we lived when we were young
Cm              Eb               Ab
 In a world of magnets and miracles
Cm                     Eb
 Our thoughts strayed constandly 
        Ab
And without boundary
Cm                   Eb
 The ringing of the division bell 
       Ab
Had begun
 
[Segunda Parte]

    Cm     Bb/Ab Ab/G  G     Cm    Bb/Ab   Ab/G   G
E|----------------------------------------------------|
B|--4--4---3--3--1--1--0-----4--4--3--3--1--1--0------|
G|--5--5---3--3--1--1--0-----5--5--3--3--1--1--0------|
D|----------------------------------------------------|
A|--3---------------------2--3------------------------|
E|---------4-----3-----3-----------4-----3-----3--3---|
 
Cm           Bb/Ab
  Along the long  
 Ab/G                      G
Road and on down the causeway
Cm          Bb/Ab                  Ab/G  G
  Do they still meet there by the cut

[Terceira Parte]

   Cm       Eb       Ab      Cm       Eb       Ab
E|-3--3-----6--6-------------3--3-----6--6------------|
B|----------4--4-----4--4-------------4--4-----4--4---|
G|-5--5-----5--------5--5----5--5-----5--------5--5---| (2x)
D|-------------------6--6----------------------6--6---|
A|----------------------------------------------------|
E|----------------------------------------------------|

Cm               Eb            Ab
 There was a ragged band that followed in our footsteps
Cm                  Eb                  Ab
 Running before time  took our dreams away
Cm              Eb                  
 Leaving the myriad small creatures 
  Ab
Trying to tie us to the ground
Cm             Eb              Ab
 To a life consumed by slow decay

[Refrão]

   Cm           Gm             Ab          Bb
E|----------------------------------------------------|
B|--------4-----------3-------------------------------|
G|--------5--5--------3--------------5-----------7----|
D|-----5--5-----------5--5-----------6--6--------8--8-|
A|--3--------------5--------------6--6--------8--8----|
E|--------------3--------------4-----------6----------|

    Cm          Eb            Fm             
E|----------------------------------------------------|
B|--------4-----------4-------------1-----------------|
G|--------5--5--------3-------------1-----------------|
D|-----5-----------3--5--5----------3--3--------------|
A|--3-----------6----------------3--------------------|
E|----------------------------1-----------------------|

   Ab          
E|----------------------------------------------------|
B|----------------------------------------------------|
G|--------5-------------------------------------------|
D|--------6--6----------------------------------------|
A|-----6--6-------------------------------------------|
E|--4-------------------------------------------------|

   Cm           Gm             Ab          Bb
E|----------------------------------------------------|
B|--------4-----------3-------------------------------|
G|--------5--5--------3--------------5-----------7----|
D|-----5--5-----------5--5-----------6--6--------8--8-|
A|--3--------------5--------------6--6--------8--8----|
E|--------------3--------------4-----------6----------|

    Cm          Eb            Fm             
E|----------------------------------------------------|
B|--------4-----------4-------------1-----------------|
G|--------5--5--------3-------------1-----------------|
D|-----5-----------3--5--5----------3--3--------------|
A|--3-----------6----------------3--------------------|
E|----------------------------1-----------------------|

   Ab          
E|----------------------------------------------------|
B|----------------------------------------------------|
G|--------5-------------------------------------------|
D|--------6--6----------------------------------------|
A|-----6--6-------------------------------------------|
E|--4-------------------------------------------------|

                Cm   Gm  Ab  Bb
The grass was greener
                Cm    Eb5  Fm  Ab
The light was brighter
                  Cm   Gm  Ab  Bb
With friends surrounded
              Cm   Eb5  Fm  Ab
The night of wonder

[Quarta Parte]

   Cm       Eb       Ab      Cm       Eb       Ab
E|-3--3-----6--6-------------3--3-----6--6------------|
B|----------4--4-----4--4-------------4--4-----4--4---|
G|-5--5-----5--------5--5----5--5-----5--------5--5---| (2x)
D|-------------------6--6----------------------6--6---|
A|----------------------------------------------------|
E|----------------------------------------------------|

Cm                  Eb
 Looking beyond the embers 
     Ab
Of bridges glowing behind us
Cm                     Eb
 To a glimpse of how green it was 
       Ab
On the other side
Cm            Eb
 Steps taken forwards 
      Ab
But sleepwalking back again
Cm               Eb
 Dragged by the force of some 
       Ab
Inner tide

[Quinta Parte]

    Cm     Bb/Ab Ab/G  G     Cm    Bb/Ab   Ab/G   G
E|----------------------------------------------------|
B|--4--4---3--3--1--1--0-----4--4--3--3--1--1--0------|
G|--5--5---3--3--1--1--0-----5--5--3--3--1--1--0------|
D|----------------------------------------------------|
A|--3---------------------2--3------------------------|
E|---------4-----3-----3-----------4-----3-----3--3---|

Cm            Bb/Ab           Ab/G        G 
  At a higher altitude with flag unfuried
Cm                      Bb/Ab            Ab/G           G
  We reached the dizzy heights of that dreamed of world

[Ponte]

   Em                          F
E|----------------------------------------------------|
B|----------------------------------------------------|
G|----------------------------------------------------|
D|-2--2/4-4---4/5-5----5/9-9---7-----7-9-10-7-9-5-7---|
A|----------------------------------------------------|
E|----------------------------------------------------|
   
E|----------------------------------------------------|
B|----------------------------------------------------|
G|----------------------------------------------------|
D|----7h9h7-5h7h5-3h5h3-------------------------------|
A|----------------------------------------------------|
E|----------------------------------------------------|

   Em                        F
E|----------------------------------------------------|
B|----------------------------------------------------|
G|-------------------------------------------7--------|
D|-2--2/4-4---4/5-5---5/9-9--9--5-7---9-7-10---10-9-7-|
A|----------------------------------------------------|
E|----------------------------------------------------|

   Em                       F
E|----------------------------------------------------|
B|----------------------------------------------------|
G|----------------------------------------------------|
D|-2--2/4-4--4/5-5---5/9-9--7--7-10-9--7-9-5--5-7/9~--|
A|----------------------------------------------------|
E|----------------------------------------------------|

   Em                        F
E|----------------------------------------------------|
B|----------------------------------------------------|
G|----------------------------------------------------|
D|-2--2/4-4---4/5-5---5/9-9--9----5--7----------------|
A|----------------------------------------------------|
E|----------------------------------------------------|

E|----------------------------------------------------|
B|----------------------------------------------------|
G|----------------------------------------------------|
D|--7/5---3--2--3-----2-------------------------------|
A|-----------------5-----3----------------------------|
E|--------------------------5--3----------------------|

( C5  Eb5  Ab5 )
( C5  Eb5  Ab5 )

   C5      Eb5      Ab5       C5      Eb5      Ab5
E|-15-15---18--18---11--11----15-15---18--18---11--11-|
B|-13-13---16--16---9---9-----13-13---16--16---9---9--|
G|----------------------------------------------------|
D|----------------------------------------------------|
A|----------------------------------------------------|
E|----------------------------------------------------|

Cm             Eb
 Encumbered forever 
      Ab
By desire and ambition
Cm                  Eb  
 There's a hunger still 
         Ab
Unsatisfied
Cm         Eb
 Our weary eyes 
         Ab
Still stray to the horizon
Cm                            Eb
 Though down this road we've been so 
        Ab
Many times

[Refrão]

   Cm           Gm             Ab          Bb
E|----------------------------------------------------|
B|--------4-----------3-------------------------------|
G|--------5--5--------3--------------5-----------7----|
D|-----5--5-----------5--5-----------6--6--------8--8-|
A|--3--------------5--------------6--6--------8--8----|
E|--------------3--------------4-----------6----------|

    Cm          Eb            Fm             
E|----------------------------------------------------|
B|--------4-----------4-------------1-----------------|
G|--------5--5--------3-------------1-----------------|
D|-----5-----------3--5--5----------3--3--------------|
A|--3-----------6----------------3--------------------|
E|----------------------------1-----------------------|

   Ab          
E|----------------------------------------------------|
B|----------------------------------------------------|
G|--------5-------------------------------------------|
D|--------6--6----------------------------------------|
A|-----6--6-------------------------------------------|
E|--4-------------------------------------------------|

   Cm           Gm             Ab          Bb
E|----------------------------------------------------|
B|--------4-----------3-------------------------------|
G|--------5--5--------3--------------5-----------7----|
D|-----5--5-----------5--5-----------6--6--------8--8-|
A|--3--------------5--------------6--6--------8--8----|
E|--------------3--------------4-----------6----------|

    Cm          Eb            Fm             
E|----------------------------------------------------|
B|--------4-----------4-------------1-----------------|
G|--------5--5--------3-------------1-----------------|
D|-----5-----------3--5--5----------3--3--------------|
A|--3-----------6----------------3--------------------|
E|----------------------------1-----------------------|

   Ab          
E|----------------------------------------------------|
B|----------------------------------------------------|
G|--------5-------------------------------------------|
D|--------6--6----------------------------------------|
A|-----6--6-------------------------------------------|
E|--4-------------------------------------------------|

                Cm   Gm  Ab  Bb
The grass was greener
                Cm     Eb5  Fm  Ab
The light was brighter
                 Cm   Gm  Ab  Bb
The taste was sweeter
               Cm   Eb5  Fm  Ab
The nights of wonder
 
                 Cm     Gm  Ab  Bb
With friends surrounded
                Cm  Eb5  Fm  Ab
The dawn mist glowing
            Cm   Gm  Ab  Bb
The water flowing
               Cm  Eb5  Fm  Ab
The endless river
            Cm 
Forever and ever

[Solo] C5  Gm  Ab  Bb  C5  Eb5  Fm  Ab

E|-----8--11/10--6/8-6----8-6-8-----------------------|
B|-4/8-----------------/8---------/6--4b6-6/8-6/4-----|
G|----------------------------------------------------|
D|----------------------------------------------------|
A|----------------------------------------------------|
E|----------------------------------------------------|

E|---------------8-8-10--11--13/15--15/20--20/18-18---|
B|-----------8-8--------------------------------------|
G|-5-3-5----------------------------------------------|
D|----------------------------------------------------|
A|----------------------------------------------------|
E|----------------------------------------------------|

E|-20/18-18—15/13-13/15----------8-10-11-10-----------|
B|-----------------------------8------------/11-8/13~-|
G|----------------------------------------------------|
D|----------------------------------------------------|
A|----------------------------------------------------|
E|----------------------------------------------------|

E|---------------------------------------------7/15~--|
B|-6~---4~------6/8-11-13-13/11-8/11-11/13------------|
G|----------------------------------------------------|
D|----------------------------------------------------|
A|----------------------------------------------------|
E|----------------------------------------------------|

                                    (Uma oitava acima)
E|-15b16r15/13/15--15b16r15/13/15---/8-10-11-13-15-18-|
B|----------------------------------------------------|
G|----------------------------------------------------|
D|----------------------------------------------------|
A|----------------------------------------------------|
E|----------------------------------------------------|

  (.....)
E|-20-20/--------------/11-10-------------------------|
B|-----------------------------11/8-8~--8/6--4/6------|
G|----------------------------------------------------|
D|----------------------------------------------------|
A|----------------------------------------------------|
E|----------------------------------------------------|

E|----------------------------------------------------|
B|-4/6-4----------------------------------------------|
G|-------5-3-5----------------------------------------|
D|----------------------------------------------------|
A|----------------------------------------------------|
E|----------------------------------------------------|

E|---------------/11-10---/13-11---15p13-15---15/20---|
B|-/8--11~--13~---------------------------------------|
G|----------------------------------------------------|
D|----------------------------------------------------|
A|----------------------------------------------------|
E|----------------------------------------------------|

E|-22/18—15-----------15/11---13/8---8/11/10--6/3-----|
B|----------------------------------------------------|
G|----------------------------------------------------|
D|----------------------------------------------------|
A|----------------------------------------------------|
E|----------------------------------------------------|

E|----8-10-11-10-8/6---6/8~----15/11--13/8----6--8----|
B|-/8----------------8--------------------------------|
G|----------------------------------------------------|
D|----------------------------------------------------|
A|----------------------------------------------------|
E|----------------------------------------------------|

E|-------------7/20~~/23/22--18/----18-20-15/13-13/15-|
B|-6-6/8/6--------------------------------------------|
G|----------------------------------------------------|
D|----------------------------------------------------|
A|----------------------------------------------------|
E|----------------------------------------------------|

                                      (uma oitava acima)
E|-20—-21/22—20-------/20---/20--/20----/20--/20------|
B|----------------------------------------------------|
G|----------------------------------------------------|
D|----------------------------------------------------|
A|----------------------------------------------------|
E|----------------------------------------------------|
Acordes para:

    0 comentarios

    mostrar más comentarios

    ¿Conseguiste tocar?

    7 tocaron 2 aún no

    ¡Graba un vídeo tocando High Hopes y envianoslo!

    00:00 / 00:00
    outros vídeos desta música
    repetir qualidade Automático
    Outros vídeos desta música
    00:00 / 00:00
    Automático
    OK