Cifra Club

Is There Anybody Out There

Pink Floyd

Tablatura: Principal (guitarra)
reproducciones 4.218
Tono: G
   Am
E|------------|
B|------------|
G|------2-----|  (x8)
D|------------|
A|---0--------|
E|------------|

   Am
E|-------0---------|-------0---------|-------0---------|-------0---------|
B|-----1---1-------|-----1---1-------|-----1---1-------|-----1---1-------|
G|---2-------2---2-|---2-------2---2-|---2-------2---2-|---2-------2---2-|
D|-2-----------2---|-3-----------3---|-4-----------4---|-3-----------3---|
A|-----------------|-----------------|-----------------|-----------------|
E|-----------------|-----------------|-----------------|-----------------|

E|-------0-------0-|-------0-------0-|---------0-------|-----------------|---------0-------|-----------0-----|
B|-----1-------1---|-----1-------1---|-------1---1-----|-------1---------|-------1---1-----|-------1---------|
G|---2-------2-----|---2-------2-----|-----2-------2---|-----2---2-------|-----2-------2---|-----2-----------|
D|-2-------0-------|-----------------|---2-----------2-|---2-------2---2-|---2-----------2-|---2-------------|
A|-----------------|-3-------2-------|-0---------------|-0-----------0---|-0---------------|-0---------------|
E|-----------------|-----------------|-----------------|-----------------|-----------------|-----------------|

E|-------0---------|-------0---------|-------0---------|-------0---------|---------------0-|-------0---------|
B|-----1---1-------|-----1---1-------|-----1---1-------|-----1---1-------|-----1-------1---|-----1---1-------|
G|---2-------2---2-|---2-------2---2-|---2-------2---2-|---2-------2---2-|---2-------2-----|---2-------2-----|
D|-2-----------2---|-3-----------3---|-4-----------4---|-3-----------3---|-3-----2-0-------|-0---------------|
A|-----------------|-----------------|-----------------|-----------------|-----------------|-------------3-2-|
E|-----------------|-----------------|-----------------|-----------------|-----------------|-----------------|

E|---------0-------|-----------------|---------0-------|---------0-------|
B|-------1---1-----|-------1---------|-------1---1-----|-------1---------|
G|-----2-------2---|-----2---2-------|-----2-------2---|-----2-----------|
D|---2-----------2-|---2-------2---2-|---2-----------2-|---2-------------|
A|-0---------------|-0-----------0---|-0---------------|-0---------------|
E|-----------------|-----------------|-----------------|-----------------|

   C
E|---------0-------|-----------0-----|---------0-----|---0---------------|
B|-------1---1-----|-------1-3---3---|-------0---1---|-1-----3---1---0---|
G|-----0-------0---|-----0---------0-|-----2-------2-|-----4---2---0---0-|
D|---2-----------2-|---0-------------|---2-----------|-------------------|
A|-3---------------|-2---------------|-0-------------|-------------------|
E|-----------------|-----------------|---------------|-------------------|

E|---------0-------|-----------0-----|---------0-----|-0-8-----7\--------|
B|-------1---1-----|-------1-3---3---|-------0---1---|-------------------|
G|-----0-------0---|-----0---------0-|-----2-------2-|-------7-----------|
D|---2-----------2-|---0-------------|---2-----------|-------------------|
A|-3---------------|-2---------------|-0-------------|-------------------|
E|-----------------|-----------------|---------------|-------------------|

   Am
E|-------0---------|-------0---------|-------0---------|-------0---------|
B|-----1---1-------|-----1---1-------|-----1---1-------|-----1---1-------|
G|---2-------2---2-|---2-------2---2-|---2-------2---2-|---2-------2---2-|
D|-2-----------2---|-3-----------3---|-4-----------4---|-3-----------3---|
A|-----------------|-----------------|-----------------|-----------------|
E|-----------------|-----------------|-----------------|-----------------|

   (Diminui a velocidade)                                    F#m7(b5)
E|-------0-------0-|-------0-------0-|-----------5-7-8/12-|-12~----------|
B|-----1-------1---|-----1-------1---|-------1/5----------|-10~----------|
G|---2-------2-----|---2-------2-----|-----2--------------|-9~-----------|
D|-2-------0-------|-----------------|---2----------------|-10~----------|
A|-----------------|-3-------2-------|-0------------------|-9~-----------|
E|-----------------|-----------------|--------------------|--------------|
Acordes para:

    0 comentarios

    mostrar más comentarios

    ¿Conseguiste tocar?

    33 tocaron 0 aún no

    ¡Graba un vídeo tocando Is There Anybody Out There y envianoslo!

    00:00 / 00:00
    outros vídeos desta música
    repetir qualidade Automático
    Outros vídeos desta música
    00:00 / 00:00
    Automático
    OK