Cifra Club

Keep Talking

Pink Floyd

Tablatura: Principal (guitarra)
Tom: G
(Gilmour,Wright,Samson)

Tom - Em 


Solo: (intro) Parte I       
e|-3---5-5-7------------3---5-5-7----------3--5-5-7--
B|------------------------------------------------------
G|------------------------------------------------------
D|------------------------------------------------------
A|------------------------------------------------------
E|------------------------------------------------------

Solo: (intro) Parte II               
Em                                                                       D
e|---5/7--7-7---7/5/3-5--7/3/5/-5-------5/7--10-12----14-15-14---10---5----5p7--3--3p5----2--2p3-
B|-----------------------------------------------------------------------------------------------
G|---------------------------------------------------------------------------------------------
D|--------------------------------------------------------------------------------------------
A|-----------------------------------------------------------------------------------------------
E|----------------------------------------------------------------------------------------------

continua:
 Em                                                                                            D
e|--------------------------------------------------------------------------5/7--7-7-12-12--12p10--12--10
B|-5--5---3---5/8-8---3h5-5----8p5--7-7--8/5-5---7-7----5-7-8-8-------------------------------------
G|-------------------------------------------------------------------------------------------------------
D|------------------------------------------------------------------------------------------------------
A|-------------------------------------------------------------------------------------------------------
E|-------------------------------------------------------------------------------------------------------
 

Solo Base (dura toda a música)

e|------------------------------------------------------
B|------------------------------------------------------
G|------------------------------------------------------
D|-----2-----2----0----0h2------------------------------
A|---2-----2-----2----2----------------------------------
E|------------------------------------------------------
     e repete

(parte falada)
For millions of years mankind lived just like the animals
Then something happened which unleashed the power of our imagination
We learned to talk

          Em
There's a silence surrounding me

  Em
I can't seem to think straight

      D                       
I'll sit in the corner

Am
No one can bother me

  Em                          / (parte cantada por um coro de vozes)
I think I should speak now  /   Why won't you talk to me 

  Em
I can't seem to speak now  /  You never talk to me

   Am
My words won't come out right / What are you thinking

  Em
I feel like I'm drowning / What are you feeling

Em              
I'm feeling good now / Why won't you talk to me

      Em
But I can't show my weakness / You never talk to me

D
I sometimes wonder / What are you thinking

 Am
Where do we go from here / What are you feeling

Em 

(parte falada)
    Em          
It doesn't have to be like this

                D             Bm          Em
All we need to do is make sure    we keep talking

(solo) Em  D  Am  Em  Am  Em   

       Em D  Am  Em  Am  Em 

      
                           Em
                         / Why won't you talk to me

                           Em
I feel like I'm drowning / You never talk to me
 
                                D
You know I can't breathe now / What are you thinking
                       
                      Am
We're going nowhere / What are you feeling
               
                      Em
We're going nowhere / Why won't you talk to me

                      Em
                    / You never talk to me
       
                      D
                    / What are you thinking

 Am                   Am                  Em
                    / Where do we go from here

Em

(parte falada)

   Em
It doesn't have to be like this  

               D              Bm           Em
All we need to do is make sure     we keep talking

(segue o solo base)
reproducciones 387
Acordes para:
    Composição: David Gilmour / Polly Samson / Richard Wright Colaboración y revision:
    • Marcos Pastori

    0 comentarios

    mostrar más comentarios

    ¿Conseguiste tocar?

    1 tocaron 0 aún no

    ¡Graba un vídeo tocando Keep Talking y envianoslo!

    00:00 / 00:00
    outros vídeos desta música
    repetir qualidade Automático
    Outros vídeos desta música
    00:00 / 00:00
    Automático
    OK