Cifra Club

Lucifer Sam

Pink Floyd

Tablatura: Principal (guitarra)
Tom: G
Rif:

|----|----------------------------------|
|----|----------------------------------|    
|----|----------------------------------|     
|----|----------------------------------|     
|----|-------4------3-----2-----0-------|    
|-0--|--1-2----2-------2------2---------|
                          
|---------------------------------------|
|---------------------------------------|
|---------------------------------------|
|----|----------------------------------|     
|----|-------7------6-----5-----4-------|    
|-5--|--6-7----7-------7------7---------|



F#m               G
Lucifer Sam, siam cat.
B
Always sitting by your side
       E
Always by your side.
C                      G     D
That cat's something I can't explain.

Rif:

F#m            G
Ginger, ginger you're a witch.
B
You're the left side
He's the right side.
E
Oh, no!
C                      G     D
That cat's something I can't explain.

Rif
F#m      G
Lucifer go to sea.
B
Be a hip cat, be a ship's cat.
E
Somewhere, anywhere.
C                      G     D
That cat's something I can't explain.

Rif

F#m              G
At night prowling sifting sand.
B
Hiding around on the ground.
He'll be found 
E
when you're around.
C                      G     D
That cat's something I can't explain.

Rif
reproducciones 898
Acordes para:
    Composição: Syd Barrett Colaboración y revision:
    • Rafael Calderón
    • Alysson Luiz

    0 comentarios

    mostrar más comentarios

    ¿Conseguiste tocar?

    7 tocaron 0 aún no

    ¡Graba un vídeo tocando Lucifer Sam y envianoslo!

    00:00 / 00:00
    outros vídeos desta música
    repetir qualidade Automático
    Outros vídeos desta música
    00:00 / 00:00
    Automático
    OK