Cifra Club

Matilda Mother

Pink Floyd

Tablatura: Principal (guitarra)
Tom: D
Intro:

(Parte que Rick Wright faz no teclado)
E|------------------------------------------|
B|------------------------------------------|
G|----4------2-----0------------------------|
D|-4-----4-----4----4-----------------------|
A|------------------------------------------|
E|------------------------------------------|

(Syd toca esse dedilhado enquanto toca:)
E|------0-----------0--------0--------0-----|
B|---------0----------0--------0--------0---|
G|---4-------4--2------2-0----0--------0----|
D|-----------------------------------4------|
A|------------------------------------------|
E|------------------------------------------|

Bm               A              G             F#
There was a king who ruled the land
Bm            A         G             F#
His majesty was in command
Bm             A             G           F#
With silver eyes the scarlet eagle
Bm          A         G            F#
Showers silver on the people

G D   A    G    D  E
Oh Mother, tell me more

(Nessa parte Syd toca as mesmas notas que canta)

E|---------------------------------------------------------------------|
B|---------------------------------------------------------------------|
G|----------------------------------------------------------------4--4-|
D|----------------------------------------------------------------4--4-|
A|---------0---2---0---------------------0--2-0--------------2--2------|
E|-2--4-------------4-2---0-2--4------------4-2---0--------------------|

Why'd ya have to leave me there
Hanging in my infant air
Waiting

E|------------------------------------------------------------------------|
B|------------------------------------------------------------------------|
G|----------------------------------------------------------------4-------|
D|----------------------------------------------------------------4-----5-|
A|---------0---2---0---------------------0--2-0--------------2-----5------|
E|-2--4-------------4-2---0-2--4------------4-2---0---------3-------------|

You only have to read the lines
They're scribbly black and everything shines

Bm            A                G             F#
Across the stream with wooden shoes
Bm               A          G              F#
With bells to tell the king the news
Bm               A         G         F#
A thousand misty riders glide
Bm        A      G          F#
Higher once upon a time

G    D        A
Wandering and dreaming
    G          D         E
The words have different meaning
D   C    A
yes they did

Puu tchiiiiiii aaaaaaah (barulhos com a boca feitos por Syd)

Guitarra:   (Repete esse riff enqnuanto toca o teclado)

E|-------------------------|
B|-------------------------|
G|-------------------------|
D|---4-------4-------------|
A|-------4--------4--------|
E|-2---2----2---2----------|

(Depois que acaba o solo de teclado)
E|-------------------------------------------------------------|
B|-------------------------------------------------------------|
G|-------------------------------------------------------------|
D|-------------------------------------------------------------|
A|---------0---2---0---------------------0--2-0----------------|
E|-2--4-------------4-2---0-2--4------------4-2---0------------|

Bm            A          G                F#
For all the time spent in that room
Bm              A          G                  F#
The doll's house, darkness, old perfume
Bm            A             G                   F#
And fairy sories held me high on clouds
Bm       A         G      F#
Of sunlight floating by

G D  A     G    D  E
Oh Mother, tell me more
D    C  A
Tell me more
reproducciones 438
Acordes para:
    Composição: Syd Barrett Colaboración y revision:
    • Antoine Roquentin
    • Hugo Dalben

    0 comentarios

    mostrar más comentarios

    ¿Conseguiste tocar?

    3 tocaron 0 aún no

    ¡Graba un vídeo tocando Matilda Mother y envianoslo!

    00:00 / 00:00
    outros vídeos desta música
    repetir qualidade Automático
    Outros vídeos desta música
    00:00 / 00:00
    Automático
    OK