Cifra Club

Mudmen

Pink Floyd

Tablatura: Principal (guitarra)
Tom: G
B|- bend


E|--B----------------B--------|--B---------------B-----|------------------|
B|-9(11)-----------11(13)--9--|-9(11)-----------9(11)--|-9--------8-------|
G|----------------------------|------------------------|-------------8----|
D|----------------------------|------------------------|------------------|
A|----------------------------|------------------------|------------------|
E|----------------------------|------------------------|------------------|

                              Ab

E|---------------------------|-19(20)-----19-17-15-19(20)-----------|
B|--B---------------------16-|---B-------------------B-----------16-|
G|-8(10)---------------------|--------------------------------------|
D|---------------------------|--------------------------------------|
A|---------------------------|--------------------------------------|
E|---------------------------|--------------------------------------|

                                     G

E|-19(20)-----18-16-18-19(20)---------|-15----------17(19)-(19)17-15-|
B|---B-------------------B------------|---------------B-------R------|
G|------------------------------------|------------------------------|
D|------------------------------------|------------------------------|
A|------------------------------------|------------------------------|
E|------------------------------------|------------------------------|

                                                     F

E|-17(19)------17---15---------|--------------------|---------------------|
B|---B-------------------------|--------------------|---------------------|
G|-----------------------------|-16-14-16---14---12-|-12-14-14---12-14-14-|
D|-----------------------------|-w/slide------------|---------------------|
A|-----------------------------|--------------------|---------------------|
E|-----------------------------|--------------------|---------------------|

  D                                 Bb                 F

E|-------------|-------------------|---------------13-|----13----13-------|
B|-------------|----15-15-17-19-20-|----13-15---15----|-15----13----13-15-|
G|-11--16---14-|-16----------------|-15---------------|-------------------|
D|-------------|-------------------|------------------|-------------------|
A|-------------|-------------------|------------------|-------------------|
E|-------------|-------------------|------------------|-------------------|

  C               G                                 F

E|---------------|---------------|-----------------|----------------------|
B|-17----15--13--|-15------------|-----------------|----------------12-13-|
G|---------------|---------------|-16------12---14-|-16-14-12-14----------|
D|---------------|---------------|-----------------|----------------------|
A|---------------|---------------|-----------------|----------------------|
E|---------------|---------------|-----------------|----------------------|

  D                                  Bb               F

E|----12--14---12-|-14--14----------|----------------|-----------15-17-13-|
B|-15-------------|---------15------|----------------|-15----13-----------|
G|----------------|-----------------|-15-------------|--------------------|
D|----------------|-----------------|----------------|--------------------|
A|----------------|-----------------|----------------|--------------------|
E|----------------|-----------------|----------------|--------------------|



  C             G               Ebmaj7

E|-15--13----------|---------------|--B---------B-------|--B-------B------|
B|-----------------|---------------|-9(11)----11(13)--9-|-9(11)--11(13)---|
G|---------12--14--|-16------------|--------------------|-----------------|
D|-----------------|-----end slide-|--------------------|-----------------|
A|-----------------|---------------|--------------------|-----------------|
E|-----------------|---------------|--------------------|-----------------|

  Dbmaj7
                           Ebmaj7
E|----------------|--------------|--B---------B-------|--B--------B-------|
B|-9------8-------|--B-----------|-9(11)----11(13)--9-|-9(11)----9(11)----|
G|------------8---|-8(10)--------|--------------------|-------------------|
D|----------------|--------------|--------------------|-------------------|
A|----------------|--------------|--------------------|-------------------|
E|----------------|--------------|--------------------|-------------------|

  
  Dbmaj7
                                 Ab
E|-----------------|-------------------|-19(20)---19-17-15-19-19(20)------|
B|-9---------------|--B-------------16-|---B--------------------B---------|
G|---------8-------|-8(10)-------------|----------------------------------|
D|-----------------|-------------------|----------------------------------|
A|-----------------|-------------------|----------------------------------|
E|-----------------|-------------------|----------------------------------|
 
                                     G
E|-19(20)19(20)-18-15-19-19(21)--19-|-15------------B------B------------|
B|---B-----B--------------B---------|-------15----13(15)-13(15)---------|
G|----------------------------------|-----------------------------------|
D|----------------------------------|-----------------------------------|
A|----------------------------------|-----------------------------------|
E|----------------------------------|-----------------------------------|
reproducciones 60
Acordes para:
    Composição: David Gilmour / Richard Wright Colaboración y revision:
    • Antonio Martins

    0 comentarios

    mostrar más comentarios

    ¿Conseguiste tocar?

    0 tocaron 0 aún no

    ¡Graba un vídeo tocando Mudmen y envianoslo!

    00:00 / 00:00
    outros vídeos desta música
    repetir qualidade Automático
    Outros vídeos desta música
    00:00 / 00:00
    Automático
    OK