Cifra Club

Not Now John

Pink Floyd

Tablatura: Principal (guitarra)
Tom: C
G                   D                         Em
Fuck all that we've got to get on with these
G                      D          Em
Gotta compete with the wily Japanese
        G                   D
There's too many home fires burning
               Em
And not enough trees,
   G
So fuck all that
      D                           Em
We've got to get on with these

Can't stop       Lose job    Mind gone   Silicon
What bomb        Get away    Pay day     Make hay
Break down       Need fix    Big six
                                                        G      D  Em
Clickity click   Hold on     Oh no       Brrrrrrrrrring bingo!

C/E               Em              D/E                            Em
Make 'em laugh.   Make 'em cry.   Make 'em dance in the aisles.
C/E               Em              D/E           Em
Make 'em pay.     Make 'em stay.  Make'em feel ok.

G
Not nah John
      D                      Em           G
We've got to get on with the film show
          D                       Em
Hollywood waits at the end of the rainbow
G                    D
Who cares what it's about
               Em
As long as the kids go
G
Not now John
D                      Asus
Got to get on with the show

Solo:

E|--------x----x--x-------------------15--------------|
B|--------2----2--2-----15p12---15b17------15b17~-----|
G|--------2----2--2-----------------------------------|
D|--------2----2--2-----------------------------------|
A|-15\----x----x--x-----------------------------------|
E|--------x----x--x-----------------------------------|

E|------------------------------------------------------------|
B|--15p12---15~---12------------------------------------------|
G|-------------------12b14--9---12-----12--12--14--14—-12~~---|
D|------------------------------12h14--12--14--12--12—-12~~---|
A|------------------------------------------------------------|
E|------------------------------------------------------------|

E|-------------------------12—12h15-15-15b17~p15------|
B|---------12—15p12--15-------------------------------|
G|--\5/-----------------------------------------------|
D|----------------------------------------------------|
A|----------------------------------------------------|
E|----------------------------------------------------|

E|---12h15-----12------------------------------|
B|----------15-----15b17-p15p12--15~-----------|
G|---------------------------------------------|
D|---------------------------------------------|
A|---------------------------------------------|
E|---------------------------------------------|

E|-----------------------------------------------------------------|
B|--15--12--14----12-----------------------------------------------|
G|-------------14----12—14--11--12-----11-------------------0------|
D|---------------------------------14------12---14~--12~-----------|
A|-----------------------------------------------------------------|
E|-----------------------------------------------------------------|

E|----------------------------------------------------------------------|
B|----------------------------------------------------------------------|
G|-4b5---4p2---5b6-6p4---7b8—8p6---9b10—9-11—11b13r11-p9---12b14~-------|
D|----------------------------------------------------------------------|
A|----------------------------------------------------------------------|
E|----------------------------------------------------------------------|

E|------------------------12-------------------------|
B|--------12-14-12-----------15----------------------|
G|--14b16----------14b14----------14b16r15b17~~~-----|
D|---------------------------------------------------|
A|---------------------------------------------------|
E|---------------------------------------------------|

E|---------------------------------------------------|
B|----------12-15------------------------------------|
G|---14b16--------14b16~---14--12—14~--12------------|
D|----------------------------------------14~~-------|
A|---------------------------------------------------|
E|---------------------------------------------------|

E|---------------------------------------------------|
B|---------------------------------------------------|
G|-\-2b3~--^2b-^2b-^2b-^2b-^2b-^2b-^2p0--------------|
D|---------------------------------------2-2---------|
A|---------------------------------------------------|
E|---------------------------------------------------|

G                  D                         Em
Hang on John we've got to get on with this
  G
I don't know what it is
       D                  Em
But it fits on here like.....
G                      D
Come at the end of the shift,
                 Em
We'll go and get pissed
    G
But now now John
     D
I've got to get on with this

C/E
Hold on John
                Em
I think there's something good on
  D/E                     Em
I used to read books but.....
   C/E
It could be the news,
        Em
Or some other abuse,
      D/E               Em
Or it could be reusable shows

G                   D                        Em
Fuck all that we've got to get on with these
G                         D        Em
Got to compete with the wily Japanese
G                 D               Em
No need to worry about the Vietnamese
G                         D            Em
Got to bring the Russian bear to his knees
      G                     D
Well, maybe not the Russian bear,
          Em
Maybe the Swedes
   G
We showed Argentina
    D                    Em
Now let's go and show these
G
Make us feel tough
    D                  Em
And wouldn't Maggie be pleased?
G                              D  Em
Nah nah nah nah nah nah nah!
reproducciones 207
Acordes para:
    Composição: Roger Waters Colaboración y revision:
    • Henrique Fruscihoffer
    • andy

    0 comentarios

    mostrar más comentarios

    ¿Conseguiste tocar?

    4 tocaron 0 aún no

    ¡Graba un vídeo tocando Not Now John y envianoslo!

    00:00 / 00:00
    outros vídeos desta música
    repetir qualidade Automático
    Outros vídeos desta música
    00:00 / 00:00
    Automático
    OK