Cifra Club

One Of These Days

Pink Floyd

Cifrado: Principal (guitarra y guitarra eléctrica)
Já pensou em usar uma coleção de roupas do Cifra Club? Responda as perguntas abaixo e nos ajude nessa missão! →
tono: G
Olha gente eu tava cansado de nunca encontrar a cifra dessa musica entao resolvi tentar tirar...
como eu tirei pelo violao entao meu violao nao esta na afinaçao correta para essa musica...
entao eu escrevi do jeito que eu tirei no violão com a afinação que já estava...então se você 
estiver com a afinação certa é so diminui uma casa dae o que esta 1 fica 0...
So que a guitarra eu não tenho certeza se esta certo mais quem quiser ajudar ae a terminar agradeço...

Baixo:
Intro:
G|-------------------------------------------| 
D|-------------------------------------------| 
A|-------------------------------------------| 
E|-1-1-1~-----7ht8-8~/9~/11~-----1-1-1~------| 

Chorus:
G|-------------------------------------------| 
D|-------------------------------------------| 
A|-----10-10---------------------------------| 
E|-1-1-------1-1-2-2-1-1-3-3-1-1-2-2-1-1-2-2-| 

Guitarra:
e|--------------|----------------------------------| 
B|--------------|------8~--10-8b\7\6\5\4\3\2\1\0---| 
G|-8~/-10---10~-|-8-10-----------------------------| 
D|-8~/-10---10~-|----------------------------------| 
A|-6~/--8----8~-|----------------------------------| 
E|--------------|----------------------------------| 

e|------------------------------------------| 
B|--8b\\\\0---------------------------------| 
G|-----------8b\\\\0------------------------| 
D|-------------------8bf---10~-\\\///\\//---| 
A|------------------------------------------| 
E|------------------------------------------| 

e|--/19~--17-19-19b---19---------------------------------------------------|
B|------------------------19b-r~-------------------------------------------|
G|-------------------------------------16-15-16----------------------------|
D|-------------------------------14/16----------16-14h16-14/12-12/10-/9-10-|
A|-------------------------------------------------------------------------|
E|-------------------------------------------------------------------------|

Baixo:
G|--------------------------------------------------------------| 
D|--------------------------------------------------------------| 
A|--------------------------------------------------------------| 
E|-1-1-1-1-1-1-1-2-2-2-3-3-6-6-8-8-8...-6-6-6-3-3-2-2-1-1-1...--| 

G|---------------------------------------------| 
D|---------------------------------------------| 
A|---------------------------------------------| 
E|-1-1-1-1-1...-1-1-1-2-3-3-3-3-3-2-1-1-1...---| 

G|------------------------------------------------------| 
D|------------------------------------------------------| 
A|------------------------------------------------------| 
E|-1-1-1...-1-1/3-3-3-3-3-1-1-1...-1-1/3-3-3-3-1-1-1...-| 

G|-------------------------------------------------| 
D|-------------------------------------------------| 
A|-------------------------------------------------| 
E|-1-1-1-/-8-8-8-8-8-8-8--6-6-3-3-2-2-1-1-1...-----| 

Aqui eu acho q entra um outro baixo junto...sei la...:
G|----------------------------------------------------------| 
D|----------------------------------------------------------| 
A|----------8-8-8-8-8-8-10-10-10-10-10-8-8-8-8-8-8----------| 
E|-1-1-1...----------------------------------------1-1-1...-| 

E|----------------------///19-19-19--19----17--19----17-19p17---19b-17-19-----|
B|-----10bf-8bf-8br---------------------19--------19----------19---------19b\-|
G|-8-10---------------8-------------------------------------------------------|
D|----------------------------------------------------------------------------|
A|----------------------------------------------------------------------------|
E|----------------------------------------------------------------------------|

Essa parte q esta cercada eu não tenho certeza se esta correto..:
   *                          *
e|-|-/19\--/17\--17-17b\15bf\-|-----------8-10/12\10---------------------------------|
B|-|--------------------------|-------10b------------10b-b-10b-8----8-10b------------|
G|-|--------------------------|--8-10----------------------------10-------10-8b(10)r-|
D|-|--------------------------|------------------------------------------------------|
A|-|--------------------------|------------------------------------------------------|
E|-|--------------------------|------------------------------------------------------|

Dae vai passar uma parte q a guitar fica bem fininha e q eu num cpncegui tirar...acho q ele fais ou com Wemmy ou com slide sei la...mais dae depois a parte mais grossa é mais ou menos assim.:

e|------------------------20-20bbbbb~-|-----------------------------------|
B|------------------16-18-------------|-----10b-8b-----8------------------|
G|------15/17-17----------------------|--10--------10b---8b-7b------------|
D|------------------------------------|-------------------------10-8~-10~-|
A|------------------------------------|-----------------------------------|
E|-15~--------------------------------|-----------------------------------|

Esse é a parte meio intro...num tirei o resto ainda...mais quando tirar colocarei aqui...
Quem quiser ajudar é so tirar o resto e corrigir aqui...
Composición de David Gilmour / Nick Mason / Richard Wright / Roger Waters
Colaboración y revisión:
  • rafael perez
648 vistas
    • ½ Tono
    • A
    • Bb
    • B
    • C
    • Db
    • D
    • Eb
    • E
    • F
    • F#
    • G
    • Ab
  • Agregar a la lista

    0 comentarios

    Ver todos los comentarios
    00:00 / 00:00
    Outros vídeos desta música
    Repetir Calidad Automático
    Outros vídeos desta música
    00:00 / 00:00
    Automático
    OK