Cifra Club

Pigs On The Wing

Pink Floyd

Tablatura: Principal (guitarra)
Tom: G
INTRO: 
  
G  C  G  C 
      
G             C         Csus4      C                    
If you didn't care                         
                 G      Gsus4      G 
what happened to me 
             C          Csus4      C 
And I didn't care 
     G       Gsus4     G             A               G A G 
For you                    We would zig-zag our way 
            A7                     G              C 
Through the boredom and pain      Occasionally   glancing 
D              G      Am             F                 Am         F 
up through the rain       Wondering       which of the buggers to blame 
C    Am7/B   Am         D        Dsus4   D               G 
                    And watching         for pigs on the wing 
  
  
Solo - por Bruno César da banda Eagles Land – Campo Grande – MS 


          C                                      G  
e|----–10/12-12~--8-10-12-12b13-10-12-8-10-10b12-10-8/10/8-7/8-5/7/5/3----
B|---------------------------------------------------------------------3~-
G|------------------------------------------------------------------------
D|------------------------------------------------------------------------
A|------------------------------------------------------------------------ 
E|------------------------------------------------------------------------ 

                     C                        Am  
e|-----13^15-13^15-10-1212-13^15-10-1212---------12-15~--15^17------------
B|-----------------------------------------10-13--------------------------
G|------------------------------------------------------------------------
D|------------------------------------------------------------------------
A|------------------------------------------------------------------------
E|------------------------------------------------------------------------

          D                               Am             D     
e|-----1514---------------------------------------------------------------
B|----------15------------------------------------------------------------
G|-------------14-12-11---------------7-7/9-9~--9-9-9/11-11~--11-11-12----
D|----------------------12------------------------------------------------
A|-------------------------12-10------------------------------------------
E|-------------------------------10~-------------------------------------- 

                            G      Gsus4      G           G    Gsus4    G 
e|--------------------------------15-17-15/17/15/17-15~-------------------
B|-------------------------18^20--------------------------15/17-15-15^17--
G|-----12^14--14^16-16^17-------------------------------------------------
D|------------------------------------------------------------------------
A|------------------------------------------------------------------------
E|------------------------------------------------------------------------ 

                 G      Gsus4      G 
e|------------------------------------------------------------------------
B|-----12-10-12~----------------------------------------------------------
G|------------------------------------------------------------------------
D|----------------------9-9/10/9------------------------------------------
A|-----------------1010----------10-10~~----------------------------------
E|------------------------------------------------------------------------

 
   C    F  C               G    C  G 
You know that I care    what happens to you 
                    C    F  C      G     C  G 
And I know that you care    for me too 
     A7 
So I don't feel alone or the weight of the stone 
G                   C                 D7      G 
Now that I've found somewhere safe to bury my bone 
    Am       F     D7  Am            F      C  Am 
And any fool knows     a dog needs a home 
  D7                C      G 
A shelter from pigs on the wing 
 
reproducciones 1.328
Acordes para:
    Composição: Roger Waters Colaboración y revision:
    • bruno volpato

    0 comentarios

    mostrar más comentarios

    ¿Conseguiste tocar?

    3 tocaron 0 aún no

    ¡Graba un vídeo tocando Pigs On The Wing y envianoslo!

    00:00 / 00:00
    outros vídeos desta música
    repetir qualidade Automático
    Outros vídeos desta música
    00:00 / 00:00
    Automático
    OK