Cifra Club

Poles Apart

Pink Floyd

Tablatura: Principal (guitarra)
Tom: D
Intro:

D|------------0-----------------0--------|
A|------0-----------0-----0-----------0--|
G|---7-----------------6-----------------|
D|---------5-----5-----------5-----5-----|
A|---------------------------------------|
D|---------------------------------------|

D|------------0-----------------0--------|
A|------0-----------0-----0-----------0--|
G|---4-----------------6-----------------|
D|---------5-----5-----------5-----5-----|
A|---------------------------------------|
D|---------------------------------------|

D|------------0-----------------0--------|
A|------0-----------0-----0-----------0--|
G|---7-----------------6-----------------|
D|---------5-----5-----------5-----5-----|
A|---------------------------------------|
D|---------------------------------------|


D|------------0-----------------0----------------------|
A|------0-----------0-----0-----------0----------------|
G|---4-----------------6-------------------------------|
D|---------5-----5-----------5-----5-------------------| repita=
A|----------------------------------------|    3    ---|
D|----------------------------------------|  vezes  ---|
_____________________________________________________|


D|------------0-----------------0--------|
A|------0-----------0-----0-----------0--|
G|---4-----------------2-----0-----0-----|
D|---------5-----5-----------------------|
A|---------------------------------------|
D|---------------------------------------|

figura 1
D|-----------------------------------------|
A|------------------0----------------------|
G|------------0-----------------0----------|
D|------4--------4--------4-------------4--|
A|---------0-----------------0-------------|
D|---0-----------------0-------------------|

D|-----------------------------------------|
A|------------------0----------------------|
G|------------0-----------------0----------|
D|------4--------4--------4-------------4--|
A|---------0-----------------0-------------|
D|---0-----------------0-------------------|

D|-----------------------------------------|
A|------------------0----------------------|
G|------------0-----------------0----------|
D|------4--------4--------4-------------4--|
A|---------0-----------------0-------------|
D|---0-----------------0-------------------|

D|-----------------------------------------|
A|------------------0----------------------|
G|------------0-----------------0----------|
D|------4--------4--------4-------------4--|
A|---------0-----------------0-------------|
D|---0-----------------0-------------------|

figura 2
D|------------------------------------|
A|------------------0-----------------|
G|------------0-----------------0-----|
D|------0--------0--------0--------0--|
A|---------5-----------------5--------|
D|---5-----------------5--------------|

D|------------------------------------|
A|------------------0-----------------|
G|------------0-----------------0-----|
D|------0--------0--------0--------0--|
A|---------5-----------------5--------|
D|---5-----------------5--------------|

D|------------------------------------|
A|------------------0-----------------|
G|------------0-----------------0-----|
D|------0--------0--------0--------0--|
A|---------5-----------------5--------|
D|---5-----------------5--------------|

D|------------------------------------||
A|------------------0-----------------||
G|------------0-----------------0-----||
D|------0--------0--------0--------0--||
A|---------5-----------------5--------||
D|---5-----------------5--------------||


====================
fig. 1
Did you know
it was all going to go
----------------------
fig. 2
so wrong for you?
----------------------
fig. 1
And did you see
it was all going to be
----------------------
fig. 2
so right for me?
====================

D|-------------------|-----------------------|-----------|
A|-------------------|-----------------------|-----0-----|
G|-------------------|-----------------------|-----------|
D|---2/4-- 2----0----|-----------------------|-----4-----|
A|-------------------|--2/4----2----0--------|-----------|
D|-------------------|-----------------------|-----------|
      Why  did   we      tell  you  then....       You

D|----------------------|-----------------------------|-----------------|
A|---0--0---------------|-----------------------------|--0--0----0------|
G|----------------------|----0------------0-----0-----|-----------------|
D|---5--4---2-----0-----|-----------------------------|--4--5----4------|
A|----------------------|--2h4-------2p0--2-----2--0--|-----------------|
D|----------------------|-----------------------------|-----------------|
     were  al-ways the     gold-en   boy        then,    And that you'd

D|--------------|------------------------------|
A|--------------|------------------------------|
G|--------------|------------------------------|
D|--------------|----0--0--0----0---------4----|
A|-----2--0-----|--2h4--4--2p0-----------------|
D|--------------|---------------5---------0----|
        never     lose that light in your eyes. (comece com a figura 1 novamente )

======================
Hey you,
did you ever realize
what you had become?
And did you see
that it wasn't only me
you were running from?
----------------------
Did you know all the time
but it never bothered you anyway?
Leading the blind while I stared out the steel in your eyes
=======================
*Efeitos sonoros *
=======================
The rain fell slow
Down on all the roofs of uncertainty
I thought of you
And the years and all the sadness fell away from me.
------------------------
And did you know? (echo)
I never thought that you'd lose that light in your eyes.
========================
reproducciones 1.394
Acordes para:
    Composição: David Gilmour / Nick Laird-Clowes / Polly Samson Colaboración y revision:
    • guilherme silva

    0 comentarios

    mostrar más comentarios

    ¿Conseguiste tocar?

    4 tocaron 0 aún no

    ¡Graba un vídeo tocando Poles Apart y envianoslo!

    00:00 / 00:00
    outros vídeos desta música
    repetir qualidade Automático
    Outros vídeos desta música
    00:00 / 00:00
    Automático
    OK