Cifra Club

Run Like Hell

Pink Floyd

Tablatura: Principal (guitarra)
Tom: C
(intro)

(abafado)



  Riff 1

  Guitarra 1.

E|----------------------------------------------------------------|
B|----------------------------------------------------------------|
G|----------------------------------------------------------------|
D|---0-0-0-0-0-0-0-0-0-0-0-0-0-0-----3p0---3p0--3p0--3p0--3p0-----|
A|-------------------------------3h5-----5-----5----5----5--------|
E|----------------------------------------------------------------|


E|----------------------------------|
B|----------------------------------|
G|----------------------------------|
D|---0-0-0-0-0-0-0-0-0-0-0-0-0-0----| ---> repita até o verso 1
A|----------------------------------|
E|----------------------------------|


 Riff 2 (2x)

 Guitarra 2.

E|--10-10---9--9----7-7---5-5---5-5---3-3---0-0--2-2------|
B|--10-10---10-10---8-8---7-5---5-5---3-3---2-2--3-3------|
G|--11-11---9--9----7-7---7-7---6-6---4-4---2-2--2-2------|
D|--12-12---0--0----0-0---0-0---7-7---5-5---2-2--0-0------|
A|------------------------------------------0-0-----------|
E|--------------------------------------------------------|




(Verso 1)


F                      A    A   A    A7
Run, run,  run, run,   run, run, run, run

D  riff 2
Run, run, run, run, run, run, run, run
          Em
You better make your face up in

Your favourite disguise
          F
With your button down lips and your

Roller blind eyes
         Em
With your empty smile

And your hungry heart
        C
Feel the bile rising from your guilty past
          B
With your nerves in tatters

When the cockleshell shatters
        Em
And the hammers batter

Down your door
           D
You better run



Riff 1 - Riff 2



F                      A    A   A    A7
Run, run,  run, run,   run, run, run, run

D
Run, run, run, run, run, run, run, run

          Em
You better run all day
And run all night
              F
And keep your dirty feelings
Deep inside. And if you're
Em
Taking your girlfriend
Out tonight,
    C
You better park the car
Well out of sight
             B
'Cos if they catch you in the backseat
Trying to pick her locks
              Em
They're gonna send you back to mother
In a cardboard box
           D
You better run.



E|-------------------------------------|
B|-------------------------------------|
G|-------------------------------------| Guitarra 1.  --->  Repita isso até chegar ao riff 2
D|--0-0-0-0-0-0-0-0-0-0-0-0-0-0-0-0-0--|
A|-------------------------------------|
E|-------------------------------------|


Guitarra 2.


E|----------------------------------------------------------------------------|
B|----------------------------------------------------------------------------|
G|----------------------------------------------------------------------------|
D|--------3p0--3p0---3p0---3p0---3p0-------7p0---7p0---7p0----7p0---7p0-------|
A|-----3h5----5-----5----5----5---------------10----10----10-----10-----------|
E|----------------------------------------------------------------------------|



final - Riff 2
reproducciones 2.514
Acordes para:
    Composição: David Gilmour / Roger Waters Colaboración y revision:
    • Lucas Catelli

    0 comentarios

    mostrar más comentarios

    ¿Conseguiste tocar?

    5 tocaron 0 aún no

    ¡Graba un vídeo tocando Run Like Hell y envianoslo!

    00:00 / 00:00
    outros vídeos desta música
    repetir qualidade Automático
    Outros vídeos desta música
    00:00 / 00:00
    Automático
    OK