Cifra Club

The Fletcher Memorial Home

Pink Floyd

Tablatura: Principal (guitarra)
Tom: G
G                       C             G/B Am
Take all your overgrown infants away, somewhere,
                 D              Bb+            Bm    A/C#
And build them a home, a little place of their own
D   Em                C                  D      Em7  D/F#  G       C
The Fletcher Memorial Home for incurable tyrants     and   kings.
    G                      C                  G/B   Am
And they can appear to themselves every day,
                  D            Bb+                Bm      A/B  Bm
On closed circuit T.V. to make sure they're still real
C                   D         Em
It's the only connection they feel
 
                                      Cmaj7
"Ladies and gentlemen, please welcome Reagan and Haig,
                           D
Mr. Begin and friend, Mrs. Thatcher and Paisley,
    Cmaj7
Mr. Brezhnev and party, the ghost of McCarthy,
                           D
The memories of Nixon. And now adding colour,
  G                  D/F#                C
A group of anonymous Latin-American meat packing glitterati"
 
Em                                           D
Did they expect us to treat them with any respect?
         G            D/F#       C
They can polish their medals and sharpen their smiles,
     G          D/F#         C
And amuse themselves playing games for a while
G        D/F#         C               Emadd9
Boom boom, bang bang, lie down you're dead
 
G  D/F#  Em  D/F#  G  D/F#  Em  D  Cmaj7  D
 
G  D/F#  C  D  G  D/F#  Cmaj7  D  G  D/F#  Cmaj7  Emadd9
 
G                     C              G/B   Am
Safe in the permanent gaze of a cold glass eye,
                    D                Bb+            Bm
With their favorite toys, they'll be good girls and boys
A/C# D   Em                C                 D          Em7  D/F#  G
In   the Fletcher Memorial Home for colonial wasters of life and   limb
D/F#           C       G      D/F#   Cadd9
Is everone in? Are you having a nice time?
        D/F#    C               Emadd9
Now the final solution can be applied
 
-----------------------------------------------------------
solo:

sounds best with distortion & chorus

e|---------------------------------------------------------------|
B|---------------------------------------------------------------|
G|----------------------------------------------------------12---|
D|---------------------------------------------------------------|
A|---------------------------------------------------------------|
E|---------------------------------------------------------------|
                           
e|---------------------------------------------------------------|
B|-/15-----------------------------------------------------------|
G|----------------------14b16r14h12h9----------2b4r2b4-----------|
D|-------------------------------------------2-------------------|
A|---------------------------------------------------------------|
E|---------------------------------------------------------------|
                           pinch.h on this bend^
e|-------------------------------------------------------15------|
B|----------------/15-------------12-15--15b17--15b17------------|
G|--------------12-----------------------------------------------|
D|---------------------------------------------------------------|
A|---------------------------------------------------------------|
E|---x-12\-------------------------------------------------------|

e|---------------------------------------------------------------|
B|-15b17---------------------------------------------------------|
G|---------------------------------------------------------------|
D|--------------------------5-----7b9---7b9------5--7------------|
A|-----------------------7---------------------7-----------------|
E|--------------x\-----------------------------------------------|

e|---------------------------------------------------------------|
B|---------------------------------------------------------------|
G|----------------------------------------------12h14-14b16------|
D|-7b9~~~~~~~7h5--7--------------------------14------------------|
A|---------------------------------------------------------------|
E|-----------------------/12--------7\---------------------------|

e|--------------------------------14-15-----17-----15------------|
B|--------------------------12-15--------------------------------|
G|--14-------12----12-11-12--------------------------------------|
D|---------------------------------------------------------------|
A|---------------------------------------------------------------|
E|---------------------------------------------------------------|

e|---------------------------------------------------------------|
B|---------------------------------------------------------------|
G|--11b12r11-----------------------------------------------------|
D|---------------------------------------------------------------|
A|---------------------------------------------------------------|
E|---------------------------------------------------------------|
reproducciones 286
Acordes para:
    Composição: Roger Waters Colaboración y revision:
    • Taino Vieira
    • andy

    0 comentarios

    mostrar más comentarios

    ¿Conseguiste tocar?

    2 tocaron 0 aún no

    ¡Graba un vídeo tocando The Fletcher Memorial Home y envianoslo!

    00:00 / 00:00
    outros vídeos desta música
    repetir qualidade Automático
    Outros vídeos desta música
    00:00 / 00:00
    Automático
    OK