Cifra Club

Time

Pink Floyd

Tablatura: Solo
reproducciones 3.226
Tono: D
Solo:

(Parte 1)

E|------------------------------------------|
B|------------------------------------------|
G|------------------------------------------|
D|-/4~--------------------------------------|
A|------------------------------------------|
E|------------------------------------------|

(Parte 2)

E|------------------------------------------|
B|------------------------------------------|
G|-4b6rb6~---4b6r4b6r4b6r4p2-4p2-4~---------|
D|------------------------------------------|
A|------------------------------------------|
E|------------------------------------------|

E|-------------------------5----------------|
B|--------------5~-7p5h7p5-5--7\------------|
G|----------4/6-----------------------------|
D|-4b5r4~------------------------4~---------|
A|------------------------------------------|
E|------------------------------------------|

(Parte 3)

E|-------------------9--9b10r9--------------|
B|-----------------------------10b12~r------|
G|-4b6~r4p2-4b6~-4/9------------------------|
D|------------------------------------------|
A|------------------------------------------|
E|------------------------------------------|

E|------------------------------------------|
B|-10p9-9~-9b10r9---------------------------|
G|-----------------9b11--b11~~r-------------|
D|------------------------------------------|
A|------------------------------------------|
E|------------------------------------------|

(Parte 4)

E|------------------------17----------------|
B|----------14-17b19~--------17b19r---------|
G|-------14---------------------------------|
D|-14/16------------------------------------|
A|------------------------------------------|
E|------------------------------------------|

E|-12h14p12--12-----------------------------|
B|----------------------14------------------|
G|--------------16b18~-----16b18r16b18r-----|
D|------------------------------------------|
A|------------------------------------------|
E|------------------------------------------|

E|------------------------------------------|
B|--------------------17--17----------------|
G|-16b18r16--16-16~----------16b18r16-14b---|
D|----------------------------------------16|
A|------------------------------------------|
E|------------------------------------------|

(Parte 5)

E|----17b19--17-----------------------------|
B|-14------------17b19~---\17---------------|
G|-----------------------------18\16p14-----|
D|------------------------------------------|
A|------------------------------------------|
E|------------------------------------------|

E|----------------------19b21r--19b21r--21~-|
B|-------------------17---------------------|
G|-16p14-14-16b18~--------------------------|
D|------------------------------------------|
A|------------------------------------------|
E|------------------------------------------|

(Parte 6)

E|-16---------------------------------------|
B|----17----17/19-19~-17h19p17-17\14--14-14~|
G|-------16---------------------------------|
D|------------------------------------------|
A|------------------------------------------|
E|------------------------------------------|

(Parte 7)

E|------------------------------------------|
B|----~--7-10/12-10~--9-10-9\5--5-5~--------|
G|---2/7------------------------------------|
D|-4----------------------------------------|
A|------------------------------------------|
E|------------------------------------------|

(Parte 8)

E|------------------------------------------|
B|-7/9-9b---7\5-7~---5\2/5-2----------------|
G|------------------------------4b6~~-------|
D|------------------------------------------|
A|------------------------------------------|
E|------------------------------------------|

(Parte 9)

E|------------------------------------------|
B|------------------------------------------|
G|-4b8r--b6r4-4p2-4b6~r4p2--4--2~-----4-----|
D|--------------------------------4/6---6\4-|
A|------------------------------------------|
E|------------------------------------------|

E|------------------------------------------|
B|------------------------------------------|
G|------------------------------------------|
D|-2~~--------------------------------------|
A|------------------------------------------|
E|------------------------------------------|
Acordes para:

    0 comentarios

      mostrar más comentarios

      ¿Conseguiste tocar?

      0tocaron0aún no

      ¡Graba un vídeo tocando Time y envianoslo!

      00:00 / 00:00
      outros vídeos desta música
      repetirqualidadeautomática
      Outro vídeos desta música
        00:00 / 00:00
        automática
        Capítulos
        • Tocando a música
        • Dicas Iniciais / Equipamentos
        • Solo - Parte 1 de 9
        • Solo - Parte 2 de 9
        • Solo - Parte 3 de 9
        • Solo - Parte 4 de 9
        • Solo - Parte 5 de 9
        • Solo - Parte 6 de 9
        • Solo - Parte 7 de 9
        • Solo - Parte 8 de 9
        • Solo - Parte 9 de 9
        • Encerramento
        • Ficha Técnica
        OK