Cifra Club

What Do You Want From Me

Pink Floyd

Tablatura: Principal (guitarra)
Tom: E
Cifra por: Márcio Garcia


TAB

INTRO (w/wah Clean – Cry Baby)
-----------------|----10--10----3---|-3h5-3-----------|---------------|
---------8-------|-10h12--10--3h5---|---3-----5-----5-|--3-5------14--|
---------7-------|----------12----4-|---------4-----4-|--4-4------14--|
---------9-------|------------------|-----------5-2-5-|----5------12--|
--7--------------|------------------|-----------------|---------------|
--0--------------|------------------|-----------------|---------12----|
                                                              (wah off)
-----------10----|-----------(7)----|------7----------|---------------|
--14-12----12----|--------(0)-8---5-|------8-------15-|------15--8--5-|
--12-------12----|------------9---6-|------9-9--14h15-|---15p14--7--4-|
--12-------14----|------------9---5-|-----------------|-14-----14---5-|
-----------------|------------------|----7------------|------------7--|
-----------------|--------------7---|-----------------|---------------|


gtr.1 (w/dist.)
-----------------------|-------------------------------------------------|
-15b17-(17)----(15)(17)|(17)-----------12--15b17-(17)r-15p12-15---------|
-----------------------|---------14b16---------------------------14-12-14|
-----------------------|-------------------------------------------------|
-----------------------|-------------------------------------------------|
-----------------------|-------------------------------------------------|

----------------------------|----------------------------------------------|
-----------x----15------15--|-----15-----15-----15-----15-15----15-----15--|
-----------x14b(16)-14b(16)-|-14b(16)14b(16)14b(16)14b(16)1414b(16)14b(16)-|
14-12-14-------------------|-----------------------------------------------|
----------------------------|----------------------------------------------|
----------------------------|----------------------------------------------|
                                                                    As you 
------------------12-------------------|--------------------------|----------|
----------------12--15p12--------------|--------------------------|----------|
-14p12----14b16----------14b16r14p12---|-------14b16--12-14-12-b--|(13)~~~~~-|
-------14---------------------------14-|-------------------14-----|----------|
---------------------------------------|--------------------------|----------|
---------------------------------------|--------------------------|----------|
look around this room tonight                             Settle in your 
--------------------|---------|-------------------------|----------------|
--------------------|---------|-------------------------|----------------|
--------------------|---------|-2b4r2-0-2p0-------------|----------------|
--------------------|---------|--------------2p0h2~~~~~~|----------------|
--------------------|---------|-------------------------|----------------|

seat and dim the lights
-----------------------|------------------|------------------|
-----------------------|-----15------15---|------------------|
-----------------------|-14b(16)-14b(16)--|-14-12------------|
-----------------------|------------------|-------14--------|
-----------------------|------------------|------------------|
-----------------------|------------------|------------------|

Do you want my blood?            Do you want my tears what do you want
-------------------|-------------|--------------|----------------------|
-------------------|-------------|--------------|----------------------|
-------------------|---555-------|--------------|---555------55--------|
-2-2~~~~-----2-----|---555-------|-2~~~~--------|---555------55--------|
-0-0~~~~-----0-----|-------------|-0~~~~--------|----------------------|
-------------------|-------------|--------------|---------------------0|


                         (What do you want from me?)
------------------------|----------12----------12--|
-x----------------------|------15b(17)(17)-15p(17)-|
--2b4--2b4--2b4r2p0-----|--------------------------|
--------------------2p0-|-2---x--------------------|
------------------------|--------------------------|
------------------------|--------------------------|

                                         Should I sing until I can't sing anymore
---------------------------------------------|----------------|-------------|
---------------------------------------------|----------------|-------------|
-14b16r14-12-14b16r14-p-12-------------------|----------------|-555---------|
--------------------------14-12-14~~~~~~-----|--2-2~~~~-------|-555---------|
---------------------------------------------|--0-0~~~~-------|-------------|
---------------------------------------------|----------------|-------------|

Play the strings till my fingers are raw                  
------------------------|------------------|
------------------------|------------------|
------------------------|--2b4r2--0---2~~~~|
2-2~~~~-----------------|------------------|
0-0~~~~-----------------|------------------|
------------------------|------------------|

 ah..., ah, ah... You're so hard to please
|---------|-----------------------------|----------12-15p12-------------------|
|---------|-----------------------------|--15b17---------------15b17-15b17~~~~|
|---------|-----------------------------|-------------------------------------|
|---------|-----------------------------|-------------------------------------|
|-4~~~~---|-4--6--2--4--5~~~~~----------|-------------------------------------|
|-2~~~~---|-2--4--0--2--3~~~~~----------|-------------------------------------|

What do you want from me?
-------------------------|-------------------------------------------|
-------------------------|----12----12--~~~~~~-------12---12-----12--|
-------------------------|-14b16-14b(16)~~~~~~----14b16-14b16-14b(16)|
-------------------------|-------------------------------------------|
-----------3--2--0-------|-------------------------------------------|
-------------------------|-------------------------------------------|

------------|----xx-17b19-17b19-17b19r17--|-----------------------------|
------------|----xx-----------------------|----------12~~xx-12-12-12~~--|
14p12-------|----xx-----------------------|-------12-12~~xx-12-12-12~~--|
-------14---|-----------------------------|-12/14----14~~xx-14-14-14~~--|
------------|-----------------------------|-----------------------------|
------------|-----------------------------|-----------------------------|

--------------------|------------------------------------------------|
-17---b--19(20)~~~~-|-17h19--19--------------------------------------|
--------------------|-----------14-12--------------------------------|
--------------------|-----------------14~~~~~~-----------------------|
--------------------|------------------------------------------------|
--------------------|------------------------------------------------|

Do you think that I know something you don't know
-------------------------------|------------------------------------------------|
-------------------------------|------------------12-12-12-x-12-xxxx------------|
-------------------------------|------------------12-12-12-x-12-xxxx------------|
-------------------------------|------------------------------------------------|
-------------------------------|------------------------------------------------|
-------------------------------|------------------------------------------------|

|------------------------------------------------|
|------------------12-12-12-x-12----------------|
|------------------12-12-12-x-12----------------|
|------------------------------------------------|
|------------------------------------------------|
|------------------------------------------------|

If I don't promise you the answers would you go
|---------------------------------------------|---------12---------------12-----|
|---------------------------------------------|-------12---15p12-------12--15p12|
|---------------------------------------------|-14b16------------14b16----------|
|---------------------------------------------|---------------------------------|
|---------------------------------------------|---------------------------------|
|---------------------------------------------|---------------------------------|

|---------12----------------------------|
|-------12---15p12----------------------|
|-14b16------------14p12-------14-12---|
|------------------------14p12----------|
|---------------------------------------|
|---------------------------------------|

Should I stand out in the rain           Do you want me to make a daisy chain
|------------------------|-------------|--------------|----------------------|
|------------------------|-------------|--------------|----------------------|
|------------------------|----555------|--------------|----555------55-------|
|------2-2~~~~-----2-----|----555------|-2~~~~--------|----555------55-------|
|------0-0~~~~-----0-----|-------------|-0~~~~--------|----------------------|
|------------------------|-------------|--------------|----------------------|

for you...ah...,..I'm not the one you need
|---------|-----------------------------|-----------------14----12~~~~|
|---------|-----------------------------|-----------------------------|
|---------|-----------------------------|-----------12/14---14/12-----|
|---------|-----------------------------|-----------------------------|
|-4~~~~---|-4--6--2--4--5~~~~-----------|-----------------------------|
|-2~~~~---|-2--4--0--2--3~~~~~----------|-----------------------------|

What do you want from me?
-------------------------|-------------------------------------|
-------------------------|-------------------------------------|
-------------------------|-------------------------------------|
-------------------------|12h14-12h14--------------------------|
-----------3--2--0-------|------------12-10--------------------|
-------------------------|------------------12-10-12~~~~~~-----|

-------------------------|-------------------------------------|
-xx----------------------|--15--b--17-(17)~~~~//---------------|
-xx-2b4r2-p-0------------|-------------------------------------|
-xx-----------2-~~~~~~-|--------------------------------------|
-------------------------|-------------------------------------|
-------------------------|-------------------------------------|

      (Tocar dedilhando com “chorus”)
C#m                           G#
  You can have anything you want
          B
  You can drift, you can dream, even walk on water
  A
  Anything you want 

C#m                         G#
  You can own everything you see 
  B
  Sell your soul for complete control 
  A
  Is that really what you need 

C#m                         G#
  You can lose yourself this night 
  B
  See inside there is nothing to hide 
  A
  Turn and face the light 

           Ah..., ah, ah, ah, ah, áh...
|-----------------|-----------------------------|------------------14----12~~~~|
|-----------------|-----------------------------|------------13/15----13---~~~~|
|-----------------|-----------------------------|------------------------------|
|222-2------------|-----------------------------|------------------------------|
|000-0-6--4~~~~---|-4--6--2--4--5~~~~~----------|------------------------------|
|------4--2~~~~---|-2--4--0--2--3~~~~~----------|------------------------------|

What do you want from me?
---------------------------------------------------------|
---------------------------------------------------------|
---------------------------------------------------------|
---------------------------------------------------------|
-----------3--2--0---------------------------------------|
---------------------3--0-~~~~~~~~~~~~~~~~~~~~-----------|


gtr.2 (clean – “chorus”)   
              Em                         C9
|---------------------------|----------------------|
|---------------------------|-----------------3----|
|------------0---------0----|-------0-----------0--| Estribílio 1
|--------------2---------2--|---------2----2-------|
|--------2-----------2------|----2-------3---------|
|------0-----------0--------|--0-------------------|

              Am                        C9
|---------------------------|----------------------|
|------------1---------1----|-------1---------3----|
|--------------2---------2--|---------2---------0--| Estribílio 2
|--------2----------2-------|----2---------2-------|
|------0----------0---------|--0---------3---------|
|---------------------------|----------------------|

      Em                      C9         Em    C9
As you look around this room tonight 
Em                      C9         Em           C9
Settle in your seat and dim the lights
Am                  C9 Am
Do you want my blood?, do you want my tears? 
     C9        Em
What do you want? 
           C9           Em            C9
What do you want from me? 
Am                                    C9
Should I sing until I can't sing any more 
Am                                      C9    F#m..., F#m G#m A
Play these strings until my fingers are raw 
         B         C  ...
You're so hard to please 
           53 52 50  63 60(Em)  C9   Em   C9
What do you want from me? 

       Em                          C9            Em
Do you think that I know something you don't know 
                         C9
What do you want from me? 
         Em                       C9          Em
If I don't promise you the answers would you go 
                         C9
What do you want from me? 
       Am                       C9
Should I stand out in the rain 
Am                             C9         F#m..., F#m G#m A
Do you want me to make a daisy chain for you 
            B          C ...
I'm not the one you need 
           53 52 50  63 60(Em)  C9   Em   C9
What do you want from me? 

C#m                           G#
  You can have anything you want
          B
  You can drift, you can dream, even walk on water
  A
  Anything you want 

C#m                         G#
  You can own everything you see 
  B
  Sell your soul for complete control 
  A
  Is that really what you need 

C#m                         G#
  You can lose yourself this night 
  B
  See inside there is nothing to hide 
  A
  Turn and face the light 
           53 52 50  63 Em~~~~~~~~
What do you want from me?
reproducciones 857
Acordes para:

    0 comentarios

    mostrar más comentarios

    ¿Conseguiste tocar?

    0 tocaron 0 aún no

    ¡Graba un vídeo tocando What Do You Want From Me y envianoslo!

    00:00 / 00:00
    outros vídeos desta música
    repetir qualidade Automático
    Outros vídeos desta música
    00:00 / 00:00
    Automático
    OK