Cifra Club

Aprenda

When You're In

Pink Floyd

Tablatura: Original (guitarra)
Tom: E
E|-------------------------------------------------------|
B|-------------------------------------------------------|
G|-----------------------------------x----7-5------------|   2x
D|--7-7--5p7-7-7---7-7--5p7-7-7------x----7-5------------|
A|--7-7--7---7-7---7-7--7---7-7--7-----------------------|
E|--5-5--5---5-5---5-5--5---5-5----5---------------------|

E|--------------------------------------------------------|
B|--------------------------------------------------------|
G|--7-7--7p5-------7-7--7p5-----------------7-5-----------|
D|--7-7--7p5--7-7--7-7--7p5--7-7--x-x--5p7--7-5-----------|
A|------------7-7------------7-7--x-x--5p7----------------|
E|--------------------------------------------------------|
Compositor David Gilmour / Nick Mason / Richard Wright / Roger Waters
Colaboración y revision:
  • raullemes braga
    • ½ Tom
    • A
    • Bb
    • B
    • C
    • Db
    • D
    • Eb
    • E
    • F
    • F#
    • G
    • Ab
  • Adicionar à lista

    0 comentarios

    Mostrar mais comentários
    00:00 / 00:00
    outros vídeos desta música
    repetir qualidade Automático
    Outros vídeos desta música
    00:00 / 00:00
    Automático
    OK