Cifra Club

Anacrônico

Pitty

Cifrado: Principal (guitarra y guitarra eléctrica)
tono: C
[Intro]  A  G  F  G  F  E  D  E  F  E  D

E|------------------------------------|
B|------------------------------------|
G|---------------7-9-10-9-5-7---------|
D|--7-5-3-5-5-2--7-9-10-9-5-7---------|
A|--7-5-3-5-5-2--5-7-8--7-5-5---------|
E|--5-3-1-3-1-0-----------------------|

[Riff 1]

E|------------------------------------|
B|------------------------------------|  
G|---8--------------------------------|
D|-9--7-9/10-7-10-7-9-----------------|
A|------------------------------------|
E|------------------------------------|

A  G  F  G  F  E  D  E  F  E  D
 
[Riff 1]
 
É claro que somos as mesmas pessoas 
Mas pare e perceba como seu dia-a-dia mudou 
Mudaram os horários, hábitos, lugares 
Inclusive as pessoas ao redor 
São outros rostos, outras vozes 
Interagindo e modificando você 
E aí surgem novos valores 
Vindos de outras vontades 
Alguns caindo por terra 
Pra outros poderem crescer 
 
A  A#  B  C  B
  
Caem 1, 2, 3, caem 4 
A terra girando não se pode parar 
 
A  G  F  G  F  E  D  E  F  E  D
 
Dm  Cm
  
Outras situações em outras circunstâncias 
Entre uma e outras vezes se vêem os mesmos defeitos 
Todas aquelas marcas do jeito de cada um 
Alguns ainda caem por terra 
Pra outros poderem crescer 
 
Dm  Cm
 
Outro ciclo em diferentes fases 
Vivendo de outra forma 
Com outros interesses, outras ambições 
Mais fortes, somadas com as anteriores 
Mudança de prioridades 
Mudança de direção 
Alguns ainda caem por terra 
Pra outros poderem crescer
Composición de Pitty
Colaboración y revisión:
  • Marcos Paulo
  • Lygia
  • Gabriel
168 vistas
    • ½ Tono
    • A
    • Bb
    • B
    • C
    • Db
    • D
    • Eb
    • E
    • F
    • F#
    • G
    • Ab
  • Agregar a la lista

    0 comentarios

    Ver todos los comentarios

    ¿Lograste tocar?

    11 Tocaron 1 Aún no

    ¡Graba un video tocando Anacrônico y envíanoslo!

    00:00 / 00:00
    Outros vídeos desta música
    Repetir Calidad Automático
    Outros vídeos desta música
    00:00 / 00:00
    Automático
    OK