Cifra Club

Anacrônico

Pitty

Tab de bajo: Principal
Acompaña nuestras novedades de Cifra Club en español.
¡Sigue nuestro perfil en Instagram!
intro e base 

g------------------------|
d------------------------|
a------------------------|
e5-3-1-3-1-0-------------|
b-----------3-5-6-5-3-5-3|

refrão

g-------------------|
d-------------------|
a-------------------|
e5-6-5-8-5-6-5-8-8-7|
b-------------------|

parte depois do refrão sem vocal 1:55

g-------------------|
d-------------------|
a-----5-5-3----3-3-5|
e-----------3^5-5---|
b3-3-3--------------|

riff final

g-------------------|
d-------------------|
a-------------------|
e---------------5-4-|
b3-5-6-5-3-5-6-3---3|  

pedro gustavo 
baixista (nação brasilis)

pedro_flea_@hotmail.com

_______________________________________________________
Contribuição: pedro gustavo Baixista (nação brasilis)(pedro_flea_@hotmail.com)
Composición de Pitty
24 vistas

0 comentarios

Ver todos los comentarios

¿Lograste tocar?

0 Tocaron 0 Aún no

¡Graba un video tocando Anacrônico y envíanoslo!

00:00 / 00:00
Outros vídeos desta música
Repetir Calidad Automático
Outros vídeos desta música
00:00 / 00:00
Automático
OK