Cifra Club

Bicho Solto

Pitty

Cifrado: Principal (guitarra y guitarra eléctrica)
tono: Em
[Riff] E5  E6

    E5     E6       E5              E6       E5
E|--------------------------------------------------------|
B|--------------------------------------------------------|
G|--------------------------------------------------------|
D|--------------------------------------------------------|
A|--2-------4---4---2---------------4---4----2------------|
E|--0-----------0---0-------------------0----0------------|

           E6       E5              E6       E5
E|--------------------------------------------------------|
B|--------------------------------------------------------|
G|--------------------------------------------------------|
D|--------------------------------------------------------|
A|----------4---4---2---------------4---4----2------------|
E|--------------0---0-------------------0----0------------|

(variação)

E|--------------------------------------------------------|
B|--------------------------------------------------------|
G|--------------------------------------------------------|
D|------------------2------------------------2------------|
A|----------4---4---2---------------4---4----2------------|
E|--------------0---0-------------------0----0------------|

Eu me domestiquei
Pra fazer parte do jogo
Mas não se engane, maluco
Continuo bicho solto!

Eu me domestiquei
Pra fazer parte do jogo
Mas não se engane, maluco
Continuo bicho solto!

Loba em pele de dama
Corpo e mente insana
Tantas palavras na boca
Direta e solta na cama
Pragmática e rouca
Não mexe com a minha banda
Nada colérica, mas
Preciso de uma tática

Eu me domestiquei
Pra fazer parte do jogo
Mas não se engane, maluco
Continuo bicho solto!

Eu me domestiquei
Pra fazer parte do jogo
Mas não se engane, maluco
Continuo bicho solto!

Loba em pele de dama
Corpo e mente insana
Tantas palavras na boca
Direta e solta na cama
Pragmática e rouca
Não mexe com a minha banda
Nada colérica, mas
Preciso de uma tática

Eu me domestiquei
Pra fazer parte do jogo
Mas não se engane, maluco
Continuo bicho solto!

Eu me domestiquei
Pra fazer parte do jogo
Mas não se engane, maluco
Continuo bicho solto!
Composición de Composição: Pitty
Colaboración y revisión:
  • Getúlio Vasconcelos
44 vistas
    • ½ Tono
    • Am
    • Bbm
    • Bm
    • Cm
    • C#m
    • Dm
    • Ebm
    • Em
    • Fm
    • F#m
    • Gm
    • G#m
  • Agregar a la lista

    0 comentarios

    Ver todos los comentarios

    ¿Lograste tocar?

    0 Tocaron 1 Aún no

    ¡Graba un video tocando Bicho Solto y envíanoslo!

    00:00 / 00:00
    Outros vídeos desta música
    Repetir Calidad Automático
    Outros vídeos desta música
    00:00 / 00:00
    Automático
    OK