Cifra Club

Dê Um Rolê

Pitty

Cifrado: Principal (guitarra y guitarra eléctrica)
tono: F
[Intro]  Dm  C  Bb  F  Dm7  C

E|--------------------------------------×-×-------|
B|-10----------8---------6-----------6--×-×-------|
G|-10-10-14-10-9--9-12-9-7-7-10-7-10-5--×-×-------|
D|-10----------10--------8-----------7--×-×-------|
A|--------------------------------------×-×-------|
D|------------------------------------------------|

E|------------------------------------------------|
B|-10-----------8------------6-----------6--------|
G|-10-10-9-10-9-9--9-12-9-12-7-7-10-7-10-5--------|
D|-10-----------10-----------8-----------7--------|
A|------------------------------------------------|
D|------------------------------------------------|

[Riff 1]

E|-----------10-----------------------------------|
B|-----------10-----------------------------------|
G|-----------10-----------------------------------|
D|------------------------------------------------|
A|------------------------------------------------|
D|-7-10-7-0----3-4-5-----------------------------|                  

Não se assuste pessoa
 [Riff 1]                  
Se eu lhe disser que a vida é boa
 [Riff 1]                   
Não se assuste pessoa
 [Riff 1]                   
Se eu lhe disser que a vida é boa

C                 Bb     F            C7
Enquanto eles se batem, dê um rolê e você vai ouvir
C                 Bb
Apenas quem já dizia

C
Eu não tenho nada
Bb                       F
Antes de você ser eu sou

    Dm      C       Bb            F        E
Eu sou, eu sou, eu sou amor da cabeça aos pés 
Dm                  C                Bb
E só tô beijando o rosto de quem me dá valor

E|-------------------------------------------|
B|-------------------------------------------|
G|-12b14r12-10-9--10b12r10-9-7--9b10r9-5-6---|
D|-------------------------------------------|
A|-------------------------------------------|
D|-------------------------------------------|

          F
Pra quem vale mais no gosto do que cem mil réis
Composición de Luiz Galvão / Moraes Moreira
Colaboración y revisión:
391 vistas
    • ½ Tono
    • A
    • Bb
    • B
    • C
    • Db
    • D
    • Eb
    • E
    • F
    • F#
    • G
    • Ab
  • Agregar a la lista

    0 comentarios

    Ver todos los comentarios

    ¿Lograste tocar?

    8 Tocaron 4 Aún no

    ¡Graba un video tocando Dê Um Rolê y envíanoslo!

    00:00 / 00:00
    Outros vídeos desta música
    Repetir Calidad Automático
    Outros vídeos desta música
    00:00 / 00:00
    Automático
    OK