Cifra Club

Do Mesmo Lado

Pitty

Cifrado: Principal (guitarra y guitarra eléctrica)
Acompaña nuestras novedades de Cifra Club en español.
¡Sigue nuestro perfil en Instagram!
tono: F
(intro 4x) E  F  E F 

(verso)

(E  F  E F) (7x)                             E  F       E  D#
Quem chegou a ouvir o som? Quem ligou se tá no tom?
(E  F  E F) (8x)
Quem não viu e mesmo assim falou? Quem tomou e não gostou?
E      C       A       E             C        A         E
Quem dividiu o tudo em dois? Quem preferiu deixar pra depois?
E        F#     D       E            C       A         (riff)
Quem escolheu o bem e o mal? Quem achou que tudo é normal?

(riff)
E|--------------------------------------------|
B|--------------------------------------------|
G|--------------------------------------------|
D|--------------------------------------------|
A|------------------------------------7-------|  (6x)
E|-0-0-0-0-8-7-0-0-0-0-8-7-0-0-0-0-8-----8--7-|

(riff)
E eu tô do mesmo lado que você
E eu tô no mesmo barco que você

      E      F      F#   G    E   G  F#  F
Então pensa  ouve e vive a   música         (4x)

(E  F  E F) (7x)                             E  F       E  D#
Quem chegou a ouvir o som? Quem ligou se tá no tom?
(E  F  E F) (8x)
Quem não viu e mesmo assim falou? Quem tomou e não gostou?
E       F#    D        E            F#    D         E
Quem partiu a Terra ao meio? Quem decidiu o que era feio?
E        F#        D    E             F#   D     (riff)
Quem acreditou no "tudo bem"? Quem confiou em alguém?

(riff)
E eu tô do mesmo lado que você
E eu tô no mesmo barco que você

      E      F      F#   G    E   G  F#  F
Então pensa  ouve e vive a   música         (8x)

E fim!
Ou então!!!

(questão maior dessa música é a quebrada do tempo .. seria uma contagem de 7 em vez de 8)

(intro)
E|-------------------------------------------------------------|
B|-------------------------------------------------------------|
G|----------------------------(*)---------------------------(*)|  (2x)
D|-2---2---2---3---2---2---2---3-2---2---2---3---2---2---2---3-|
A|-2---2---2---3---2---2---2---3-2---2---2---3---2---2---2---3-| (*) toca-se a nota Fá rápido
E|-0---0---0---1---0---0---0---1-0---0---0---1---0---0---0---1-| já retornando para o Mi

(verso)
E|-------------------------------------------------------------|
B|-------------------------------------------------------------|
G|----------------------------(*)---------------------------(*)|
D|-2---2---2---3---2---2---2---3-2---2---2---3---2---2---2---3-|  (3x)
A|-2---2---2---3---2---2---2---3-2---2---2---3---2---2---2---3-|
E|-0---0---0---1---0---0---0---1-0---0---0---1---0---0---0---1-|

E|----------------------------------------------------|
B|----------------------------------------------------|
G|----------------------------(*)----------------9--8-|
D|-2---2---2---3---2---2---2---3-2---2---2---3---9--8-|
A|-2---2---2---3---2---2---2---3-2---2---2---3---7--6-|
E|-0---0---0---1---0---0---0---1-0---0---0---1--------|

E|-------------------------------------------------------------|
B|-------------------------------------------------------------|
G|----------------------------(*)---------------------------(*)|
D|-2---2---2---3---2---2---2---3-2---2---2---3---2---2---2---3-|  (4x)
A|-2---2---2---3---2---2---2---3-2---2---2---3---2---2---2---3-|
E|-0---0---0---1---0---0---0---1-0---0---0---1---0---0---0---1-|

(pré-refrão)
E|----------------|----------------|----------------|-----------|
B|----------------|----------------|----------------|-----------|
G|-9-----------9--|-9-----------9--|-9---10--7---9--|-9---------|
D|-9---10--7---9--|-9---10--7---9--|-9---10--7---9--|-9---10--7-|
A|-7---10--7---7--|-7---10--7---7--|-7---8---5---7--|-7---10--7-|
E|-0---8---5---0--|-0---8---5---0--|-0-----------0--|-0---8---5-|

E|--------------------------------------------|
B|--------------------------------------------|
G|--------------------------------------------|
D|--------------------------------------------|
A|------------------------------------7-------|  (6x)
E|-0-0-0-0-8-7-0-0-0-0-8-7-0-0-0-0-8-----8--7-|

(refrão)
E|--------------------------------------------|
B|--------------------------------------------|
G|--------------------------------------------|
D|-2-2-2-3---4---5-5-5--2-2-2-5---4---3-xxxx--|
A|-2-2-2-3---4---5-5-5--2-2-2-5---4---3-xxxx--|  (4x)
E|-0-0-0-1-0-2-0-3-3-3--0-0-0-3-0-2-0-1-xxxx--|

(verso 2)
E|-----------|--------------|     |-----------|-----|
B|-----------|--------------|     |-----------|-----|
G|-----------|--------------|     |-----------|-----|
D|-------7-9-|-------7------|(3x) |-------7-9-|-----|
A|-7-7-7-----|-7-7-7---7--7-|     |-7-7-7-----|-7-7-|
E|-----------|--------------|     |-----------|-----|

E|-----------|--------------|     |-----------|------|
B|-----------|--------------|     |-----------|------|
G|-----------|--------------|     |-----------|-9--8-|
D|-------7-9-|-------7------|(3x) |-------7-9-|-9--8-|
A|-7-7-7-----|-7-7-7---7--7-|     |-7-7-7-----|-7--6-|
E|-----------|--------------|     |-----------|------|

E|-----------|--------------|     |-----------|-------------|
B|-----------|--------------|     |-----------|-------------|
G|-----------|--------------|     |-----------|-------------|
D|-------7-9-|-------7------|(3x) |-------7-9-|------7-9----|
A|-7-7-7-----|-7-7-7---7--7-|     |-7-7-7-----|-7-7-7----7-\|
E|-----------|--------------|     |-----------|-------------|

(pré-refrão)
E|---------------|      |------------|
B|---------------|      |------------|
G|-9---10--7---9-|      |-9---10--7--|
D|-9---10--7---9-|      |-9---10--7--|
A|-7---8---5---7-| (3x) |-7---8---5--|
E|-0-----------0-|      |-0----------|

E|--------------------------------------------|
B|--------------------------------------------|
G|--------------------------------------------|
D|--------------------------------------------|
A|------------------------------------7-------|  (6x)
E|-0-0-0-0-8-7-0-0-0-0-8-7-0-0-0-0-8-----8--7-|

(refrão)
E|--------------------------------------------|
B|--------------------------------------------|
G|--------------------------------------------|
D|-2-2-2-3---4---5-5-5--2-2-2-5---4---3-xxxx--|
A|-2-2-2-3---4---5-5-5--2-2-2-5---4---3-xxxx--|  (4x)
E|-0-0-0-1-0-2-0-3-3-3--0-0-0-3-0-2-0-1-xxxx--|

E|---------------------------------------------|
B|---------------------------------------------|
G|---------------------------------------------|
D|-2-2-2-3---4---5-5-5--2-2-2-5---4---3-3-3-3--|
A|-2-2-2-3---4---5-5-5--2-2-2-5---4---3-3-3-3--|  (4x)
E|-0-0-0-1-0-2-0-3-3-3--0-0-0-3-0-2-0-1-1-1-1--|

E|--------------------|
B|--------------------|
G|--------------------|
D|-2-2-2-2-2-3-4--5~~-|
A|-2-2-2-2-2-3-4--5~~-|
E|-0-0-0-0-0-1-2--3~~-| 
Composición de Pitty
Colaboración y revisión:
  • julia araujo
  • sandra andre
46 vistas
    • ½ Tono
    • A
    • Bb
    • B
    • C
    • Db
    • D
    • Eb
    • E
    • F
    • F#
    • G
    • Ab
  • Agregar a la lista

    0 comentarios

    Ver todos los comentarios

    ¿Lograste tocar?

    3 Tocaron 0 Aún no

    ¡Graba un video tocando Do Mesmo Lado y envíanoslo!

    00:00 / 00:00
    Outros vídeos desta música
    Repetir Calidad Automático
    Outros vídeos desta música
    00:00 / 00:00
    Automático
    OK