Cifra Club

Imagem É Tudo, Sua Cabeça Não Tem Nada

Pitty

Cifrado: Principal (guitarra y guitarra eléctrica)
tono: C
intro.
e|---------------------------------------------------------------
b|---------------------------------------------------------------
g|-12-12-12-12-12-13-13--13-13-/12-12-12-12-12-12-10-10-9-9------  2x guiter 2(G,G#,F,E)PALM MUT
D| x---x---x--x-x-x-x--x-x-x-x-/x-x-x-x-x-x-x-x-x-x--x--x-x------
A|-10-10-10-10-10-10-10--10-10-/10-10-10-10-10-10-8--8-7-7-------
E|---------------------------------------------------------------
Riff 1
E|--------------
b|--------------
g|--------------
D|-5-5-5-8-7-5-2-2-2-3-3-3------
A|-5-5-5-8-7-5-2-2-2-3-3-3----        até o refrão
E|-3-3-3-6-5-3-0-0-0-1-1-1------

refrão
e|-------------------                                                                  
b|-------------------                                                                
g|------------6------          tipo, no G fica palhetando, bem rápido, e só bate uma vez no C#
D|-55-6-5-6-5-6------                              escute a música pra entender melhor
A|-55-6-5-6-5-4------
E|-33-4-3-4-3--------

_depois vem o Riff 1 de novo
             Refrão  
             Riff 2 (-PS: é a parte que só fica a guita, faz a mesma coisa que o refrão)
             Refrão
Compositor não encontrado.
Colaboración y revisión:
  • romerio gomes
  • fabio roberto
38 vistas
  • Simplificar cifrado
    • ½ Tono
    • A
    • Bb
    • B
    • C
    • Db
    • D
    • Eb
    • E
    • F
    • F#
    • G
    • Ab
  • Agregar a la lista

    0 comentarios

    Ver todos los comentarios

    ¿Lograste tocar?

    1 Tocaron 0 Aún no

    ¡Graba un video tocando Imagem É Tudo, Sua Cabeça Não Tem Nada y envíanoslo!

    00:00 / 00:00
    Outros vídeos desta música
    Repetir Calidad Automático
    Outros vídeos desta música
    00:00 / 00:00
    Automático
    OK