Cifra Club

Malditos Cromossomos

Pitty

Cifrado: Principal (guitarra y guitarra eléctrica)
tono: C
Intro

A9 - B5 \ C5\D5 \ B5 ( 3x )
A9 - B5 \ C5 \ D5 / B5
 
Riff 1 - Se Repete por Toda a Música
e|------5----------------|
B|---------5-------------|
G|-----------5~~---------|
D|--7--------------------|

Todas as características
Explícitas ou escondidas
Físicas, psíquicas
Genética ou adquirida
Raiva competitiva
Apatia desmedida
Ângulo fora do esquadro
Objeto fálico

Obs:
Nessa parte abafa com a mão direita!

(Lick 2)
e| ---------------------------|...
B| ---------------------------|...
G| ------9------9------9------|...
D| --7------7------7----------|...

Ah! Malditos cromossomos
Riff 1

(Lick 1)
e| ------5----------------|
B| ---------5-------------|
G| -----------5~~---------|
D| --7--------------------|

Teoria Darwinista
O fruto, o meio e a iniciativa
Livre-arbítrio ou prisão
Genealogia da exclusão     
Tanta coisa já contida
E o exemplo ao longo da vida
Espécie de bagagem
Um dia sempre pesa na viagem

(Lick 2)
e| ---------------------------|...
B| ---------------------------|...
G| ------9------9------9------|...
D| --7------7------7----------|...

Ah! Malditos cromossomos!

( D - D# - A )

De onde veio a cor
Ou angústia que mora aqui
No filho eu vejo o pai também

Riff Unico
Ninguém pode evitar

segura em A5 (lá) fazendo: | B5 ----4b (1/2 T)-------------- 

Todas as características
Explícitas ou escondidas
Físicas, psíquicas
Genética ou adquirida

Riff 1
Ah! Malditos cromossomos!
Composición de Pitty
Colaboración y revisión:
39 vistas
    • ½ Tono
    • A
    • Bb
    • B
    • C
    • Db
    • D
    • Eb
    • E
    • F
    • F#
    • G
    • Ab
  • Agregar a la lista

    0 comentarios

    Ver todos los comentarios

    ¿Lograste tocar?

    1 Tocaron 0 Aún no

    ¡Graba un video tocando Malditos Cromossomos y envíanoslo!

    00:00 / 00:00
    Outros vídeos desta música
    Repetir Calidad Automático
    Outros vídeos desta música
    00:00 / 00:00
    Automático
    OK