Cifra Club

Medo

Pitty

Cifrado: Principal (guitarra y guitarra eléctrica)
Acompaña nuestras novedades de Cifra Club en español.
¡Sigue nuestro perfil en Instagram!
tono: D
(afinação - sexta corda em D)

(refrão)
E |----------------------------------------------------------------------------------||
B |----------------------------------------------------------------------------------||
G |----------------------------------------------------5555--------------------------||
D |----77--10--7----------5------------------5---------5555--------------------------||
A |----77--10--7-----5h7-----7--5--3----5h7-----7--5--33333----2h3--2h3--2h3--2h3----||
D |----77--10--7---------------------------------------------------------------------||

(ponte)
E |------------------------||
B |----10------------------||
G |--------9---------------||
D |--7-------10-9-10-7-----||
A |------------------------||
D |------------------------||

(riff 1)
E |-------------------------||
B |-------------------------||
G |-----------5--44---------||
D |--7---00---5--44---7-----||
A |--7---00---3--22---7-----||
D |--7---00-----------7-----||

(riff 2)
E |-----------------------------------------------------------------------------||
B |-----------------------------------------------------------------------------||
G |----555555555555555--------------5--44----555555555555555--------------------||
D |----555555555555555-----7---00---5--44----555555555555555---222222222222222--||
A |----333333333333333-----7---00---3--22----333333333333333---222222222222222--||
D |------------------------7---00------------------------------222222222222222--||

(riff 3)
E |----------------------------------------------------------------|
B |----------------------------------------------------------------|
G |----------------------------------------------------------------|
D |--4-2-3-4-5-7--4-2-3-4-5-7--4-2-3-4-5-7--101010-999-------------|
A |--4-2-3-4-5-7--4-2-3-4-5-7--4-2-3-4-5-7--101010-999-------------|
D |--4-2-3-4-5-7--4-2-3-4-5-7--4-2-3-4-5-7--101010-999-------------|

(refrão 2x)
Medo, escorre entre os meus dedos
Escorre entre os meus dedos
Eu lambo os dedos
E saboreio meu próprio medo

(ponte)

(riff 1 - 4x)
Medo de ter, medo de perder
Cada um tem os seus
E todos tem alguns
Suando frio, as mãos geladas
Coração dispara até sufocar

(riff 2)
Só tememos por nós mesmos
Ou por aqueles que amamos
Homem que nada teme
É homem que nada ama

(refrão 2x)
Medo, escorre entre os meus dedos
Escorre entre os meus dedos
Eu lambo os dedos
E saboreio meu próprio medo

(riff 1)
Paranóia hi tech é sindrome
Contagioso, manipulador
Antiga batalha:
O homem e seu pavor
Nocivo se paralisa

(riff 2)
Só trememos por nós mesmos
Ou por aqueles que amamos
Homem que nada teme
É homem que nada

(riff 3)
AAAAAAAAAAAAAAAAAAAAAMAAAAAAAAAAAAAA

(riff 3 - 3x)
Se corre o bicho pega
Se fica o bicho come

(riff 3) (metade)
Se corre o bicho pega

Refrão (2x)
Medo, escorre entre os meus dedos
Escorre entre os meus dedos
Eu lambo os dedos
E saboreio meu próprio medo

(refrão 2x) (mais rapido)
Medo, escorre entre os meus dedos
Escorre entre os meus dedos
Eu lambo os dedos
E saboreio meu próprio medo

(fim)
E |--------------------||
B |----10--------------||
G |--------9-----------||
D |--7--------9-10-----||
A |--------------------||
D |--------------------||
Composición de Pitty
Colaboración y revisión:
  • Luiza Eleutério
  • Guilherme Failla
127 vistas
    • ½ Tono
    • A
    • Bb
    • B
    • C
    • Db
    • D
    • Eb
    • E
    • F
    • F#
    • G
    • Ab
  • Agregar a la lista

    0 comentarios

    Ver todos los comentarios

    ¿Lograste tocar?

    2 Tocaron 0 Aún no

    ¡Graba un video tocando Medo y envíanoslo!

    00:00 / 00:00
    Outros vídeos desta música
    Repetir Calidad Automático
    Outros vídeos desta música
    00:00 / 00:00
    Automático
    OK