Cifra Club

No Escuro

Pitty

Cifrado: Principal (guitarra y guitarra eléctrica)
tono: C
Intro: E5   G5  G#5   A5   E5   G5  A5   A#5

E5      G5     G#5 A5  E5     G5       A5 A#5
Quando tá escuro   E ninguém me vê
E5      G5     G#5 A5  E5    G5        A5 A#5
Quando tá escuro,  Eu enxergo melhor
E5      G5     G#5 A5  E5  G5         A5 A#5
Quando tá escuro   Te vejo brilhar
         E5        G5          G#5         A5
onde eu fico a vontade sem medo da claridade
E5             G5         A5      A#5
Passo o dia inteiro esperando a noite
    C5
chegar...
Porque não há mais nada que eu queira fazer

Intro 2x: E5  G#5  A5  E5  G5  A5  A#5
E|---------------------------------------------------------------------|
B|-5--3--0--3--0--0----------------------------------------------------|
G|----------------------2--0--2--4--7--4--2--0--2--4--2----------------|
D|-------------------------------------------------------2-------------|
A|---------------------------------------------------------------------|
E|---------------------------------------------------------------------|

E|---------------------------------------------------------------------|
B|-5--3--0--3--0--0----------------------------------------------------|
G|----------------------2--0--2--33333333...---------------------------|
D|---------------------------------------------------------------------|
A|---------------------------------------------------------------------|
E|---------------------------------------------------------------------|

E5      G5     G#5 A5  E5     G5           A5  A#5
Quando tá escuro   Tanto faz que cor tem
E5      G5     G#5 A5  E5         G5       A5  A#5
Quando tá escuro   Só valem as palavras
E5      G5     G#5 A5  E5          G5             A5 A#5
Quando tá escuro   Ninguém repara minhas meias
          E5               G5
É onde eu abro as minha5s asas
      G#5             A
Onde eu me sinto em casa
E5             G5         A5       A#5             C5
Passo o dia inteiro esperando a noite chegar
                                           E5   G5  A5   A#5
Porque não há mais nada que eu queira fazer
             C5
A noite chegar
Porque não há mais nada, que eu queira fazer

Intro 2x: E5   G5  G#5   A5   E5   G5  A5   A#5

E5      G5     G#5 A5  E5     G5       A5 A#5
Quando tá escuro   E ninguém me vê
E5      G5     G#5 A5  E5    G5        A5 A#5
Quando tá escuro,  Eu enxergo melhor
E5      G5     G#5 A5  E5  G5         A5 A#5
Quando tá escuro   Te vejo brilhar
         E5        G5          G#5         A5
onde eu fico a vontade sem medo da claridade
E5             G5         A5       A#5
Passo o dia inteiro esperando a noite
    C5
chegar...

Porque não há mais nada que eu queira fazer 

( E5  G5  A5  A#5 )

           E5   G5   A5   A#5
Só no escuro
           E5   G5  G#5   A5
Só no escuro
           E5   G5   A5   A#5
Só no escuro
00:00 / 00:00
Otros videos de esta canción
Repetir
Otros videos de esta canción
Composición de Pitty
107 vistas
    • ½ Tono
    • A
    • Bb
    • B
    • C
    • Db
    • D
    • Eb
    • E
    • F
    • F#
    • G
    • Ab
  • Agregar a la lista

    0 comentarios

    Ver todos los comentarios

    ¿Lograste tocar?

    22 Tocaron 1 Aún no

    ¡Graba un video tocando No Escuro y envíanoslo!

    00:00 / 00:00
    OK