Cifra Club

O Muro

Pitty

Cifrado: Principal (guitarra y guitarra eléctrica)
tono: F
(Vinheta gravada para uma promoção da MTV)

_Intro:
   Am                   F F F
e|-----------------------------|
B|-----------------------------|
G|----------------------2-2-2--|   x2
D|----- 2-----2-----2---3-3-3--|
A|--0--0-0---0-0---0-0--3-3-3--|
E|-----------------------------|

     Am    C          B                      Bb
Se você quiser,    eu posso mostrar que não tem
      Am     C          B                      Bb
Mas motivo algum    pra você se deixar ser também
     Am            C        B                       Bb
Um inconformado comum,  que nunca pensa em chegar além
       Am           C           B                  Bb
Desses muros construídos pela visão limitada de alguém

_Repete Intro:
   Am                   F F F
e|-----------------------------|
B|-----------------------------|
G|----------------------2-2-2--|   x4
D|----- 2-----2-----2---3-3-3--|
A|--0--0-0---0-0---0-0--3-3-3--|
E|-----------------------------|

      Am           C           B                  Bb      Am
Esses muros construídos pela visão limitada de alguém.....Foi!
00:00 / 00:00
Otros videos de esta canción
Repetir
Otros videos de esta canción
Composición de Pitty
Colaboración y revisión:
  • Pedro Dupim
16 vistas
    • ½ Tono
    • A
    • Bb
    • B
    • C
    • Db
    • D
    • Eb
    • E
    • F
    • F#
    • G
    • Ab
  • Agregar a la lista

    0 comentarios

    Ver todos los comentarios

    ¿Lograste tocar?

    0 Tocaron 0 Aún no

    ¡Graba un video tocando O Muro y envíanoslo!

    00:00 / 00:00
    OK