Cifra Club

Serpente

Pitty

Cifrado: Principal (guitarra y guitarra eléctrica)
Quer fazer aulas de música com a gente? Responda essas perguntas
e nos ajude nesse projeto! →
tono: A
Intro 2x:
Parte 1 de 2
E|----------------------------------------------------|
B|----------------------------------------------------|
G|-6---6----9---9---11--6---6----9---7p6-7p6----------|
D|-7---7----7---7---12--7---7----7---7---7------------|
A|---0---0----0---0-------0---0----0------------------|
E|----------------------------------------------------|
 Parte 2 de 2
E|----------------------------------------------------|
B|------------------------3---------------------------|
G|-4---6---7---9---6--2-------2---2-------------------|
D|-7---7---7---7---7----------------------------------|
A|---0---0---0---0------0---0---0---------------------|
E|----------------------------------------------------|

Interlúdio:

A
Oh oh oh oh oh
      E4/B
Oh oh oh
      A
Oh oh oh

A
Oh oh oh oh oh
      E4/B
Oh oh oh
      A
Oh oh oh

Primeira Parte:
A
  Um presságio eu vi também

E4/B             A
     Arrastou o céu numa conjuração

Corpos ébrios em confusão
E4/B            A
     A sustentação é que a manhã já vem

Logo mais amanhã já vem

Interlúdio:

A
Oh oh oh oh oh
      E4/B
Oh oh oh
      A
Oh oh oh

A
Oh oh oh oh oh
      E4/B
Oh oh oh
      A
Oh oh oh

Segunda Parte:
A
  O acaso empurra quem
E4/B              A
     Se agarra à borda preso em negação

Solitário na multidão
E4/B            A
     A sustentação é que a manhã já vem

Logo mais amanhã já vem

Refrão:

D                                 A
  Chega dessa pele, é hora de trocar
D
  Por baixo ainda é serpente 
            E7
E devora a cauda

Pra recomeçar

Interlúdio 2x:

A
Oh oh oh oh oh
      E4/B
Oh oh oh
      A
Oh oh oh

A
Oh oh oh oh oh
      E4/B
Oh oh oh
      A
Oh oh oh
(Om Namah Shivaya)

Terceira Parte:

Pelo fogo, transmutação
E4/B            A
     Sem afago lapidando o aprendiz

O que sobra é cicatriz
E4/B            A
     A sustentação é que a manhã já vem

Logo mais amanhã já vem

Refrão:

D                                 A
  Chega dessa pele, é hora de trocar
D
  Por baixo ainda é serpente 
            E7
E devora a cauda

Pra continuar

Base Solo 4x: A  E4/B
Solo:
Parte 1 de 13
E|-------------------------------------------x-x------|
B|------------8-5-7b8r7----------------------x-x------|
G|-----5h6----7-5-7b8r7--5-7-5-7-5-7-5-7/9-9-x-x------|
D|-5-5-----7---------------------------------x-x------|
A|-------------------------------------------x-x------|
E|-------------------------------------------x-x------|
Parte 2 de 13
E|----------------------------------------------------|
B|----------------10/12-10-14-14/15-14/15\14/15\14-14-|
G|-7-7-9-9-9/11-9-------------------------------------|
D|-----------------7/9---7-11-11/12-11/12\11/12\11-11-|
A|-5-5-7-7-7/9--7-------------------------------------|
E|----------------------------------------------------|
Parte 3 de 13
E|------------5---------------------------------------|
B|--------------8-5-7-5---7-5-------------------------|
G|-7-5-7b9-b9-----------8-----------------------------|
D|----------------------------------------------------|
A|----------------------------------------------------|
E|----------------------------------------------------|
Parte 4 de 13
E|----------------------------------------------------|
B|----------------------------------------------------|
G|-8-8\7-5-7---5b6------------------------------------|
D|-----------7-----7-5--------------------------------|
A|---------------------7\5-3-5---3b4------------------|
E|-----------------------------5-----5----------------|
Parte 5 de 13
E|----------------------------------------------------|
B|----------------------------------------------------|
G|----------------------------------------------------|
D|----------------------------------------------------|
A|-0-3p0-5p0-6p0-7p0-10p0-7p0-6p0-5p0-6p0-5p0-3b4p0---|
E|--------------------------------------------------5~|
Parte 6 de 13
E|----------------------------------------------------|
B|----------------------------------------------------|
G|-12-14--14-14-12-14~--14-14-12-14~------------------|
D|----------------------------------------------------|
A|----------------------------------------------------|
E|----------------------------------------------------|
Parte 7 de 13
E|----------------------------------------------------|
B|---------------------13b14--------------------------|
G|-14-14-14~--14-14p12-------14-12--------------------|
D|---------------------------------14p12--------------|
A|---------------------------------------15-12--------|
E|----------------------------------------------------|
Parte 8 de 13
E|----------------------------------------------------|
B|----------------------------------------------------|
G|-12-14--14-14-12-14~--14-12-14~---------------------|
D|----------------------------------------------------|
A|----------------------------------------------------|
E|----------------------------------------------------|
Parte 9 de 13
E|----------15----------------------------------------|
B|-13-15b17----17r15p13-15----13b14-------------------|
G|-------------------------14-------------------------|
D|----------------------------------------------------|
A|----------------------------------------------------|
E|----------------------------------------------------|
Parte 10 de 13
E|----------------------------------------------------|
B|----------------------------------------------------|
G|-14-12----------------------------------------------|
D|-------14\12p10-12----------------------------------|
A|-------------------12-------------------------------|
E|----------------------------------------------------|
Parte 11 de 13
E|----------------------------------------------------|
B|----------------------------------------------------|
G|-------12-------12-------12-------12-------12-------|
D|-13/14----13/14----13/14----13/14----13/14----------|
A|----------------------------------------------------|
E|----------------------------------------------------|
Parte 12 de 13
E|----------------------------------------------------|
B|-------------------13-------------------------------|
G|-------12-------------12----12-------12-------12-14~|
D|-13/14----13/14-14-------14----13/14----13/14-------|
A|----------------------------------------------------|
E|----------------------------------------------------|
Parte 13 de 13
E|----------------------------------------------------|
B|----------------------------------------------------|
G|----------------------------------------------------|
D|----------------------------------------------------|
A|-0-10-10p0-7p0-6p0-5p0-3p0-5p0-3--------------------|
E|---------------------------------5-5----------------|

Interlúdio:

A
Oh oh oh oh oh
      E4/B
Oh oh oh
      A
Oh oh oh

A
Oh oh oh oh oh (Om Namah Shivaya)
      E4/B
Oh oh oh (Om Namah Shivaya)
      A
Oh oh oh (Om Namah Shivaya)

A
Oh oh oh oh oh (Om Namah Shivaya)
      E4/B
Oh oh oh (Om Namah Shivaya)
      A
Oh oh oh (Om Namah Shivaya)

A
Oh oh oh oh oh (Om Namah Shivaya)
      E4/B
Oh oh oh (Om Namah Shivaya)
      A
Oh oh oh (Om Namah Shivaya)
(logo mais amanhã já vem)

Interlúdio Final:
Parte 1 de 2
E|----------------------------------------------------|
B|----------------------------------------------------|
G|-6---6----9---9---11--6---6----9---7p6-7p6----------|
D|-7---7----7---7---12--7---7----7---7---7------------|
A|---0---0----0---0-------0---0----0------------------|
E|----------------------------------------------------|
 Parte 2 de 2
E|----------------------------------------------------|
B|------------------------3---------------------------|
G|-4---6---7---9---6--2-------2---2-------------------|
D|-7---7---7---7---7----------------------------------|
A|---0---0---0---0------0---0---0---------------------|
E|----------------------------------------------------|

Oh oh oh oh oh
Oh oh oh
Oh oh oh (Om Namah Shivaya)

Oh oh oh oh oh
Oh oh oh
Oh oh oh 
(logo mais amanhã já vem)

Oooh oh oh oh
Oh oh oh
Oh oh oh (Om Namah Shivaya)

Oh oh oh oh oh
Oh oh oh
Oh oh oh
Ommmmm
Composición de Pitty
271 vistas
  • Simplificar cifrado
    • ½ Tono
    • A
    • Bb
    • B
    • C
    • Db
    • D
    • Eb
    • E
    • F
    • F#
    • G
    • Ab
  • Agregar a la lista

    0 comentarios

    Ver todos los comentarios

    ¿Lograste tocar?

    19 Tocaron 2 Aún no

    ¡Graba un video tocando Serpente y envíanoslo!

    00:00 / 00:00
    Outros vídeos desta música
    Repetir Calidad Automático
    Outros vídeos desta música
    00:00 / 00:00
    Automático
    Capítulos
    • Tocando a música
    • Apresentação / Equipamentos
    • Configuração Pedal
    • Tocando Introdução
    • Ensinando Introdução
    • Ensinando Intro - Parte 1 de 2
    • Ensinando - Intro - Parte 2 de 2
    • Acordes Interlúdio e Primeira Parte
    • Tocando Interlúdio e Primeira Parte
    • Acordes Refrão
    • Tocando Refrão
    • Dicas Repetição e Solo
    • Tocando Solo
    • Ensinando Solo
    • Solo - Parte 1 de 13
    • Solo - Parte 2 de 13
    • Solo - Parte 3 de 13
    • Solo - Parte 4 de 13
    • Solo - Parte 5 de 13
    • Solo - Parte 6 de 13
    • Solo - Parte 7 de 13
    • Solo - Parte 8 de 13
    • Solo - Parte 9 de 13
    • Solo - Parte 10 de 13
    • Solo - Parte 11 de 13
    • Solo - Parte 12 de 13
    • Solo - Parte 13 de 13
    • Dicas Finais
    • Tocando Final
    • Encerramento
    OK