Cifra Club

Trapézio

Pitty

Cifrado: Principal (guitarra y guitarra eléctrica)
Já pensou em usar uma coleção de roupas do Cifra Club? Responda as perguntas abaixo e nos ajude nessa missão! →
tono: C
G F Em C D


E |--7-7-7-5-5-5-7-7-8-8-8-8-8-8-8-8--7-7-7-5-5-5-7-7-8-8-8-10-10-10|
B |--8-8-8-8-8-8-8-8-8-8-8-8-8-8-8-8--8-8-8-8-8-8-8-8-8-8-8-8--8--8-|
G |-----------------------------------------------------------------|
D |-----------------------------------------------------------------|
A |-----------------------------------------------------------------|
E |-----------------------------------------------------------------|

E |--5-5-5-3-3-3-3-3-3-3-3-5-5-3-3-|
B |--5-5-5-5-5-5-5-5-5-5-5-5-5-5-5-|  (2x)
G |--------------------------------|
D |--------------------------------|
A |--------------------------------|
E |--------------------------------|

E |------------------------|
B |--3h5-5h3-5/7-7-8-8-7/5-|  (2x)
G |------------------------|
D |------------------------|
A |------------------------|
E |------------------------|

D C G# G

E |--2-2-2-2-2-2-2-2-2-2-2-2-2-2-2-0-0-0-0-0-0-0-0-0-0-0-0-0-0-0-|
B |--3-3-3-3-3-3-3-3-3-3-3-3-3-3-3-1-1-1-1-1-1-1-1-1-1-1-1-1-1-1-|
G |--------------------------------------------------------------|
D |--------------------------------------------------------------|
A |--------------------------------------------------------------|
E |--------------------------------------------------------------|

E |----------------|
B |----------------|
G |--0h2-2h0-2/3---|  (2x)
D |----------------|
A |----------------|
E |----------------|

E |----3----3-----3---3-|
B |---3-3----3---3-3--3-|
G |--4---4------4-----4-|
D |---------------------|
A |---------------------|
E |---------------------|

E |----1----1-----1----1------3----3-----3-----3---|
B |---1-1----1---1-1----1----3-3----3---3-3---3----|
G |--2---2------2---2-------4---4------4---4-------|  (2x)
D |------------------------------------------------|
A |------------------------------------------------|
E |------------------------------------------------|

     G                  F
Eu queria era dizer diferente
           Em
Aquilo que todo mundo sente
     C                  D
Mas não consegue expressar

        G                F
Meu trapézio balançando lento
                Em
Preso bem lá no firmamento
   C               D
E eu tentando me equilibrar

    D                   C
Eu sei, é uma visão estranha
                      G#
Mas o cara dos sonhos teve a manha
                                    G
De me mandar essa imagem antes de acordar

      D                  C
De manhã ainda meio zureta
           G#
Com rímel até a bochecha
                       G
Lutando pra tentar me lembrar

        G              F
Do que fiz à noite passada
            Em
Se foi tudo ou quase nada
  C                   D
Além das tequilas no bar

      G                    F
Geralmente não há nada de mal
                  Em
O problema é a ressaca moral
         C                D
Quando essa finda vem me visitar

D                      C
Ontem eu era leve e faceira
               G#
Hoje eu nem me lembro das besteiras
                           G
Que às vezes é melhor nem lembrar

    D               C
Só lembro com exatidão
          G#
O copo, o sal, o limão
                       G
E depois meu trapézio no ar

     F                 G
E depois meu trapézio no ar
     F                 G
E depois meu trapézio no ar
Composición de Pitty
Colaboración y revisión:
  • Glória Gaia
  • Pedro Dupim
65 vistas
    • ½ Tono
    • A
    • Bb
    • B
    • C
    • Db
    • D
    • Eb
    • E
    • F
    • F#
    • G
    • Ab
  • Agregar a la lista

    0 comentarios

    Ver todos los comentarios

    ¿Lograste tocar?

    14 Tocaron 0 Aún no

    ¡Graba un video tocando Trapézio y envíanoslo!

    00:00 / 00:00
    Outros vídeos desta música
    Repetir Calidad Automático
    Outros vídeos desta música
    00:00 / 00:00
    Automático
    OK