Cifra Club

Where Is My Mind

Pixies

Cifrado: Principal (guitarra y guitarra eléctrica)
Selo Cifra Club: esta cifra foi revisada para atender aos critérios oficiais da nossa Equipe de Qualidade.
tono: E
[Intro] E  C#m  G#  A
        E  C#m  G#  A
        E  C#m  G#  A
        E  C#m  G#  A

[Tab - Intro]

   E           C#m         G# 
E|----4-----4-----4-----4-----4-----4-------|
B|-5-----5-----5-----5-----4-----4----------|
G|------------------------------------------|
D|------------------------------------------|
A|------------------------------------------|
E|------------------------------------------|

   A
E|-0-0-0-0---0-0-0--------------------------|
B|-5-5-5-4/5-5-5-5--------------------------|
G|------------------------------------------|
D|------------------------------------------|
A|------------------------------------------|
E|------------------------------------------|

[Primeira Parte]

           E
With your feet on the air
          C#m               G#  A  E
And your head on the ground
      C#m            G#    A  E
Try this trick and spin it
                   C#m
Your head will collapse
             G# 
And there's nothing in it
           A
And you'll ask yourself

[Refrão 1]

E              C#m  G# 
  Where is my mind?
             A
Where is my mind?
  E       C#m     G#  A 
Where is my mind?

( E  C#m  G#  A )

 E      G#      A
Way out in the water
         Am     C#m  B
See it swimming

[Segunda Parte]

E              
I was swimming
     C#m         G#  A  E
In the Caribbean
         C#m        
Animals were hiding
   G#            A  E
Behind the rocks
                   C#m
Except the little fish
          G# 
Bumped into me
                 A    
I swear he was trying

To talk to me, koi-koi

[Segundo Refrão]

E              C#m  G# 
  Where is my mind?
             A
Where is my mind?
  E       C#m     G#  A 
Where is my mind?

( E  C#m  G#  A )

 E  G#          A
Way out in the water
         Am     C#m  B
See it swimming

[Solo] B

[Tab - Solo]

E|-----------------------------------------------------|
B|-7-------7-------------------------------------------|
G|-9b11----9b11----b11r9----9-9-7------7---------------|
D|--------------------------------9--------------------|
A|-----------------------------------------------------|
E|-----------------------------------------------------|

E|------------------10-12-12b--12b14---12b14---12b14r--|
B|----7-7/10--10-12------------------------------------|
G|-9---------------------------------------------------|
D|-----------------------------------------------------|
A|-----------------------------------------------------|
E|-----------------------------------------------------|

[Terceira Parte]

           E
With your feet on the air
          C#m               G#  A  E
And your head on the ground
      C#m            G#    A  E
Try this trick and spin it
                   C#m
Your head will collapse
             G# 
And there's nothing in it
           A
And you'll ask yourself

[Terceira Parte]

E              C#m  G# 
  Where is my mind?
             A
Where is my mind?
  E       C#m     G#  A 
Where is my mind?

( E  C#m  G#  A )

 E  G#          A
Way out in the water
         Am     C#m  B
See it swimming

[Final] E  C#m  G#  A
        E  C#m  G#  A
        E  C#m  G#  A
        E  C#m  G#  A
        E  C#m  G#  A
        E  C#m  G#  A
        E  C#m  G#
Otros videos de esta canción
    153.358 exhibiciones
    • Simplificar cifrado
      • ½ Tono
      • A
      • Bb
      • B
      • C
      • Db
      • D
      • Eb
      • E
      • F
      • F#
      • G
      • Ab
    • Agregar a la lista

    Afinação da cifra

    Afinador online

      Capítulos
      • Apresentação
      • Configuração do Timbre e Dicas Iniciais
      • Tocando a Música
      • Ensinando o Ritmo da Introdução
      • Dicas do Riff Principal
      • Ensinando o Riff Principal
      • Dicas da Primeira Parte e Refrão
      • Tocando o Refrão
      • Ensinando o Refrão
      • Dicas das Repetições e Solo
      • Ensinando o Solo
      • Dicas Finais e Encerramento
      Ops (: Contenido disponible solo en portugués.
      OK