Cifra Club

Where Is My Mind

Pixies

Cifrado: Principal (guitarra y guitarra eléctrica)
tono: E
[Intro] E  C#m  G#  A 

E|---4---4---4---4---4---4-----------------|
B|-5---5---5---5---4---4---5-4-5-4-5-4-5-4-|
G|-----------------------------------------|
D|-----------------------------------------|
A|-----------------------------------------|
E|-----------------------------------------|

          E                        C#m                 G#  A
With your feet on the air and your head on the ground
E                C#m   G#        A
   Try this trick and spin it,  Yeah
E                    C#m              G#
  Your head will collapse but there's nothing in it
           A
And you'll ask yourself

[Refrão]

E           C#m
Where is my mind?
G#m                 A
   Where is my mind?
E           C#m   G#m  A   E  C#m  G#  A
Where is my mind?
E   G#        A            Am         C#        B
Way out in the water see it swimmin'

E|---4---4---4---4---4---4-----------------|
B|-5---5---5---5---4---4---5-4-5-4-5-4-5-4-|
G|-----------------------------------------|
D|-----------------------------------------|
A|-----------------------------------------|
E|-----------------------------------------|

E             C#m            G#      A
I was swimmin' in the Carribean
E              C#m    G#          A
  Animals were hiding behind the rock
E                    C#m            G#                              A
  Except the little fish but they told me, he swears tryin' to talk to me to me to me

[Refrão]

E           C#m
Where is my mind?
G#m                 A
   Where is my mind?
E           C#m   G#m  A   E  C#m  G#  A
Where is my mind?
E   G#        A            Am         C#        B
Way out in the water see it swimmin'

[Solo]

[Guitarra 1]

E|--------------------------------------------|
B|--9b--r-9b--r-------------------------810---|
G|--9b--r-9b--r--9b--9r-9-9-7----7---9--------|
D|----------------------------9---------------|
A|--------------------------------------------|
E|--------------------------------------------|

[Guitarra 2]

E|--------------------------------------------|
B|--7-----7-----------------------------------|
G|--9b--r-9b--r--9b--9r-9-9-7-7----7--9--7----|
D|------------------------------9-----------9-|
A|--------------------------------------------|
E|--------------------------------------------|

[Guitarra 1]

E|--------10-12-12-12b-r-13b--r-13b--r-13b--r-----|
B|-10-12------------------------------------------|
G|------------------------------------------------|
D|------------------------------------------------|
A|------------------------------------------------|
E|------------------------------------------------|

[Guitarra 2]

E|-------------10---12b--r-12b--r-12b--r-12b--r---|
B|-----7-10-12------------------------------------|
G|-7-9--------------------------------------------|
D|------------------------------------------------|
A|------------------------------------------------|
E|------------------------------------------------|

[Guitarra 1]

( E  C#m  G#m  A )

[Guitarra 2]

E|---4---4---4---4---4---4------------------------|
B|-5---5---5---5---4---4---5-4-5-4-5-4-5-4--------|
G|------------------------------------------------|
D|------------------------------------------------|
A|------------------------------------------------|
E|------------------------------------------------|

          E                        C#m                 G#  A
With your feet in the air and your head on the ground
E                C#m   G#        A
   Try this trick and spin it   Yeah

[Guitarra 1] 

( E  C#m  G#  A )
( E  C#m  G#  A )

[Guitarra 2]

E|---4---4---4---4---4---4------------------------|
B|-5---5---5---5---4---4---5-4-5-4-5-4-5-4--------|
G|------------------------------------------------|
D|------------------------------------------------|
A|------------------------------------------------|
E|------------------------------------------------|

E|------------------------------------------------|
B|------------------------------------------------|
G|------------------------------------------------|
D|------------------------------------------------|
A|---------4-4-4-4---------0-0-0-0----------------|
E|-0-0-0-0---------4-4-4-4------------------------|

E|------------------------------------------------|
B|------------------------------------------------|
G|------------------------------------------------|
D|------------------------------------------------|
A|------------------------------------------------|
E|-0-0-0-0-0-4-4-4-4-4-5-5-5-5-5-5-5-5------------|

E|------------------------------------------------|
B|------------------------------------------------|
G|------------------------------------------------|
D|------------------------------------------------|
A|------------------------------------------------|
E|-4-----2-2-2-2-2-2-2-2-2-2-2-2-2----------------|
Composición de Black Francis
33.151 vistas
    • ½ Tono
    • A
    • Bb
    • B
    • C
    • Db
    • D
    • Eb
    • E
    • F
    • F#
    • G
    • Ab
  • Agregar a la lista

    0 comentarios

    Ver todos los comentarios

    ¿Lograste tocar?

    67 Tocaron 6 Aún no

    ¡Graba un video tocando Where Is My Mind y envíanoslo!

    00:00 / 00:00
    Outros vídeos desta música
    Repetir Calidad Automático
    Outros vídeos desta música
    00:00 / 00:00
    Automático
    OK