Cifra Club

Nem de Graça

Grupo Pixote

Cifrado: Simplificada (guitarra y guitarra eléctrica)
tono: Eb
[Intro] Eb  F  Dm  
        Gm  Eb  F

E|-----------------------------------------------|
B|-----------------------------------------------|
G|---3-3-3--3--3-3-3--3--3-5---------------------|
D|-5---------5--------------3--------------------|
A|-----------------------------------------------|
E|-----------------------------------------------|

E|--------------------------------------------------------|
B|-------3-4-6------3-------------------------------------|
G|---3-5-------5------3-5-2--2----3-3-3--3--3-3-3--3--3-5-|
D|-5----------------------------5---------5--------------3|
A|--------------------------------------------------------|
E|--------------------------------------------------------|

              Eb                      F
É que não sobrou espaço pra outro alguém
                                Dm                  Gm
Minha saudade só cabe no teu abraço, no de mais ninguém
       Eb                      F
Tenho dó de quem me conhecer agora
                             Dm
Que todo amor eu tô jogando fora 
                                         Gm
E qualquer um que bate aqui nesse meu coração
                  Eb
Não passa nem da porta

 F       Bb       Bb7          Eb
Se essa boca não beijasse tão bem
                              F
Se esse abraço não fosse tão massa

                                   Dm
Se quer saber se eu quero outro alguém
                       Gm
Nem de graça, nem de graça

          Cm
Leva mal não
    Eb             F
Só tem espaço pra você no coração

[Solo] Eb  F
00:00 / 00:00
Otros videos de esta canción
Repetir
Otros videos de esta canción
Composición de Filipe Labre / Hiago Vinicius / Juliano Tchula / Vine Show
Colaboración y revisión:
  • Gabriel Silva
  • Raphael Diógenes
3.484 vistas
    • ½ Tono
    • A
    • Bb
    • B
    • C
    • Db
    • D
    • Eb
    • E
    • F
    • F#
    • G
    • Ab
  • Agregar a la lista

    0 comentarios

    Ver todos los comentarios

    ¿Lograste tocar?

    20 Tocaron 14 Aún no

    ¡Graba un video tocando Nem de Graça y envíanoslo!

    00:00 / 00:00
    OK