Cifra Club

Every You Every Me

Placebo

Tablatura: Principal (guitarra)
Tom: F
Intro 4x: D5  A4/Bb  Bb9/C

D5      A4/Bb      Bb9/C      D5
Sucker love is heaven sent
           A4/Bb      Bb9/C      D5
You pucker up, our passion's spent
            A4/Bb         Bb9/C   D5
My hearts a tart, your body's rent
          A4/Bb      Bb9/C        A4/Bb
My body's broken, yours is spent

Bb5                         D5
Carve your name into my arm
                                B5
Instead of stressed, I lie here charmed
                            F5
Cuz there's nothing else to do
      A5            D5
Every me and every you

       A4/Bb     Bb9/C    D5
Sucker love, a box I choose
         A4/Bb    Bb9/C      D5
No other box I choose to use
        A4/Bb     Bb9/C   D5
Another love I would abuse
         A4/Bb    Bb9/C    A4/Bb
No circumstances could excuse

                          D5
In the shape of things to come
                       Bb5
Too much poison come undone
                            F5
Cuz there's nothing else to do
      A5            B5
Every me and every you
                   F5
Every me and every you
      A5    D5
Every Me...hee

       A4/Bb      Bb9/C      D5
Sucker love is known to swing
         A4/Bb        Bb9/C        D5
Prone to cling and waste these things
       A4/Bb     Bb9/C    D5
Pucker up for heavens sake
              A4/Bb      Bb9/C   Bb5
There's never been so much at stake

                        D5
I serve my head up on a plate
                           Bb5
It's only comfort, calling late
                            F5
Cuz there's nothing else to do
      A5            Bb5
Every me and every you
                   F5
Every me and every you
      A5    Bb5
Every Me...hee

                   F5
Every me and every you
      A5   D5
Every Me...hee

         A4/Bb    C         D5
Like the naked leads the blind
           A4/Bb       C     D5
I know I'm selfish, I'm unkind
       A4/Bb     C      D5
Sucker love I always find
           A4/Bb         C       A4/Bb
Someone to bruise and leave behind

                       D5
All alone in space and time
                                            Bb5
There's nothing here but what here's here's mine
                              F5
Something borrowed, something blue
      A5            Bb5
Every me and every you
                   F5
Every me and every you
      A5    Bb5
Every Me...hee
                   F5
Every me and every you
      A5    Bb5
Every Me...hee x4

Verso:

         D5              A4/Bb  Bb9/C   D5              A4/Bb  Bb9/C
E|---------------------------------------------------------------------------|
B|---------------------------------------------------------------------------|
G|------7-7-7-7-7-7-7-7-7---------------7-7-7-7-7-7-7-7-7--------------------|
D|------7-7-7-7-7-7-7-7-7-7-7-7-7-8-8-8-7-7-7-7-7-7-7-7-7-5-5-5-5-x-x-x-x-x--|
A|------5-5-5-5-5-5-5-5-5-5-5-5-5-7-7-7-5-5-5-5-5-5-5-x-x-5-5-5-5-8-8-8-8-8--|
E|------------------------6-6-6-6-8-8-8---------------5-5-6-6-6-6-6-6-6-6-6--|

Refrão:

         Bb5                         D5
E|-----------------------------------------------------------------------|
B|-----------------------------------------------------------------------|
G|--------------------------------------7-7-7-7-7-7-7-7-7-7-7-7-7-7-7-7--|
D|------8-8-8-8-8-8-8-8-8-8-8-8-8-8-8-8-7-7-7-7-7-7-7-7-7-7-7-7-7-7-7-7--|
A|------8-8-8-8-8-8-8-8-8-8-8-8-8-8-8-8-5-5-5-5-5-5-5-5-5-5-5-5-5-5-5-5--|
E|------6-6-6-6-6-6-6-6-6-6-6-6-6-6-6-6----------------------------------|

        Bb5                               F5             A5
E|-----------------------------------------------------------------------|
B|-----------------------------------------------------------------------|
G|------------------------------------------------------2-2-2-2-2-2-2-2--|
D|------8-8-8-8-8-8-8-8-8-8-8-8-8-8-8-8-3-3-3-3-3-3-3-3-2-2-2-2-2-2-2-2--|
A|------8-8-8-8-8-8-8-8-8-8-8-8-8-8-8-8-3-3-3-3-3-3-3-3-0-0-0-0-0-0-0-0--|
E|------6-6-6-6-6-6-6-6-6-6-6-6-6-6-6-6-1-1-1-1-1-1-1-1------------------|
   
Add:
    Bb5                                F5             A5
E|------------------------------------------------------------------|
B|------------------------------------------------------------------|
G|-3-3-3-3-3-3-3-3-3-3-3-3-3-3-3-3-----------------2-2-2-2-2-2-2-2--|
D|-3-3-3-3-3-3-3-3-3-3-3-3-3-3-3-3-3-3-3-3-3-3-3-3-2-2-2-2-2-2-2-2--|
A|-1-1-1-1-1-1-1-1-1-1-1-1-1-1-1-1-3-3-3-3-3-3-3-3-0-0-0-0-0-0-0-0--|
E|---------------------------------1-1-1-1-1-1-1-1------------------|

(Verso 4x)      (Intro)

(Verso 1x)      Sucker love is heaven sent  
(Verso 1x)      You pucker up, our passion's spent 
(Verso 1x)      My heart's a tart, your body's rent
(Verso 1x)      My body's broken, yours is spent
                  
(Refrão 1x)     Carve your name into my arm  
                Instead of stressed I lie here charmed                       
                Cause there's nothing else to do  
                Every me and every you  
 
(Verso 1x)      Sucker love a box I choose  
(Verso 1x)      No other box I choose to use  
(Verso 1x)      Another love I would abuse  
(Verso 1x)      No circumstances could excuse  

(Refrão 1x)     In the shape of things to come  
                Too much poison come undone  
                Cause there's nothing else to do  
                Every me and every you  

(Add 1x)        Every me and every you 
                Every me...

(Verso 1x)      Sucker love is known to swing  
(Verso 1x)      Prone to cling and waste these things  
(Verso 1x)      Pucker up for heaven sake  
(Verso 1x)      There's never been so much at stake 
 
(Refrão 1x)     I serve my head up on a plate  
                It's only comfort calling late  
                Cause there's nothing else to do  
                Every me and every you  

(Add 2x)        Every me and every you
                Every me ...
                Every me and every you
                Every me ...

(Baixo+Batera)  Like the naked leads the blind  
                I know I'm selfish, I'm unkind  
                Sucker love I always find  
                Someone to bruise and leave behind 

(Refrão 1x)     All alone in space and time  
                There's nothing here but what here's mine  
                Something borrowed, something blue  
                Every me and every you 

(Add 6x)        Every me and every you
                Every me ...
                Every me and every you
                Every me ...
                Every me and every you
                Every me ...
                Every me and every you
                Every me ...
                Every me and every you
                Every me ...
                Every me and every you
                Every me ...
reproducciones 2.236
Acordes para:
    Composição: Brian Molko / Stefan Olsdal / Steve Hewitt Colaboración y revision:
    • Jhon Voese
    • Felippe Silva
    • Elvis Vargas

    0 comentarios

    mostrar más comentarios

    ¿Conseguiste tocar?

    6 tocaron 1 aún no

    ¡Graba un vídeo tocando Every You Every Me y envianoslo!

    00:00 / 00:00
    outros vídeos desta música
    repetir qualidade Automático
    Outros vídeos desta música
    00:00 / 00:00
    Automático
    OK