Cifra Club

Destino

Plan 4

Cifrado: Principal (guitarra y guitarra eléctrica)
tono: F
intro

E|--------------|----------------|
B|--------------|----------------|
|o------------o|----------------|
|o------------o|----------------|
A|-5-5-65-5-5-5-|-5-5-65-5-5--8-|
E|--------------|-------------8-|
             x3

Riff 1
E|---------------|---------------------|
B|---------------|---------------------|
|o--------------|---------------------|
|o--------------|---------------------|
A|-0-0-1^0-0-0-0-|-0-0-1^0-0-0-0-0-80-|
E|-0-0-1^0-0-0-0-|-0-0-1^0-0-0-0-0-80-|

E|---------------|--------------------------|
B|---------------|--------------------------|
G|---------------|-------------------------o|
D|---------------|-------------------------o|
A|-0-0-1^0-0-0-0-|-0-0-1^0-8^6^8^6^8^6^8^6--|
E|-0-0-1^0-0-0-0-|-0-0-1^0------------------|

E|-------------------------|------------------------|
B|-------------------------|------------------------|
G|-------------------------|------------------------|
D|-------------------------|------------------------|
A|-0-0-3^5---------3^5---6~|-0--3^5---------3^5---6~|
E|-0-0-----0-3^5-0-----0---|-0------0-3^5-0-----0---|

E|-------------------------|---------------------------|
B|-------------------------|---------------------------|
G|-------------------------|-8-8-8-8-8-8-15-15-15-15-15|
D|-------------------------|---------------------------|
A|-0-0-3^5---------3^5---6~|-6-6-6-6-6-6-13-13-13-13-13|
E|-0-0-----0-3^5-0-----0---|---------------------------|

Riff 2
E|-------------------------|
B|-------------------------|
|o-----------------------o|
|o-----------------------o|x4
A|-0-0-3^5---------3^5---6~|
E|-0-0-----0-3^5-0-----0---|

Verso
E|--------------------|-------------------------|
B|--------------------|-------------------------|
G|--------------------|-------------------------|
D|--------| <7>---------|-------------------------|
A|-0-0-1^0---1^0-0-| <5>|-0-0-3^5---------3^5---6-|
E|-0-0-1^0---1^0-0----|-0-0-----0-3^5-0-----0---|

E|--------------------|-------------------------|
B|--------------------|-------------------------|
G|-----------------| <7>|-------------------------|
D|--------| <7>---------|-------------------------|
A|-0-0-1^0---1^0-0----|-0-0-3^5---------3^5---6-|
E|-0-0-1^0---1^0-0----|-0-0-----0-3^5-0-----0---|

Riff 3
E|-------------------------|--------------------------|
B|-------------------------|--------------------------|
|o------------------------|-------------------------o|
|o------------------------|-------------------------o|x2
A|-0-0-3^5-----------------|-0-0-3^5------------------|
E|-0-0-----0-3^5-0-3^5-0-6~|-0-0-----0-3^5-0-3^5-0-6~-|

Riff 1
E|---------------|---------------------|
B|---------------|---------------------|
|o--------------|---------------------|
|o--------------|---------------------|
A|-0-0-1^0-0-0-0-|-0-0-1^0-0-0-0-0-80-|
E|-0-0-1^0-0-0-0-|-0-0-1^0-0-0-0-0-80-|

                                          x2
E|---------------|--------------------------|
B|---------------|--------------------------|
G|---------------|-------------------------o|
D|---------------|-------------------------o|
A|-0-0-1^0-0-0-0-|-0-0-1^0-8^6^8^6^8^6^8^6--|
E|-0-0-1^0-0-0-0-|-0-0-1^0------------------|

Verso
E|--------------------|-------------------------|
B|--------------------|-------------------------|
G|--------------------|-------------------------|
D|--------| <7>---------|-------------------------|
A|-0-0-1^0---1^0-0-| <5>|-0-0-3^5---------3^5---6-|
E|-0-0-1^0---1^0-0----|-0-0-----0-3^5-0-----0---|

E|--------------------|-------------------------|
B|--------------------|-------------------------|
G|-----------------| <7>|-------------------------|
D|--------| <7>---------|-------------------------|
A|-0-0-1^0---1^0-0----|-0-0-3^5---------3^5---6-|
E|-0-0-1^0---1^0-0----|-0-0-----0-3^5-0-----0---|

Riff 3
E|-------------------------|--------------------------|
B|-------------------------|--------------------------|
|o------------------------|-------------------------o|
|o------------------------|-------------------------o|x2
A|-0-0-3^5-----------------|-0-0-3^5------------------|
E|-0-0-----0-3^5-0-3^5-0-6~|-0-0-----0-3^5-0-3^5-0-6~-|

Estribillo
E|----------|-------|-------|--------|
B|-----3----|-----6-|-------|----4---|
|o----2----|-----5-|-------|----3--o|
|o----0----|-----3-|-2-----|----1--o|x3
A|-0-0----3-|--3----|-2---1-|--1-----|
E|-0-0----3-|--3----|-2---1-|--1-----|


Fin
                    x3
E|---------------------|--------------------------|-----|
B|---------------------|--------------------------|-----|
|o-------------------o|--------------------------|-----|
|o-------------------o|--------------------------|-----|
A|-0-0-1^0-0-0-0-0-80-|-0-0-1^0-8^6^8^6^8^6^8^6--|-0-0-|
E|-0-0-1^0-0-0-0-0-80-|-0-0-1^0------------------|-0-0-|
00:00 / 00:00
Otros videos de esta canción
Repetir
Otros videos de esta canción
Composición de Plan 4
4 vistas
    • ½ Tono
    • A
    • Bb
    • B
    • C
    • Db
    • D
    • Eb
    • E
    • F
    • F#
    • G
    • Ab
  • Agregar a la lista

    0 comentarios

    Ver todos los comentarios

    ¿Lograste tocar?

    0 Tocaron 0 Aún no

    ¡Graba un video tocando Destino y envíanoslo!

    00:00 / 00:00
    OK