Cifra Club

Ella

Plan 4

Cifrado: Principal (guitarra y guitarra eléctrica)
tono: Cm
Intro
E|----------------------------|------------------------|
B|----------------------------|------------------------|
G|----------------------------|----------------------5-|
D|-----7-7/8------------------|----7-7/8-8-7-5---------|
A|-0-0------------------------|----------------8-7-8---|
E|-0-0--------000-000-000-000-| 000---------------------|

E|------------------------|-------------------------|
B|------------------------|-------------------------|
G|------------------------|----------10-9-7---------|
D|----7-7/8-5-5/7---------|----7-7/8--8-7-5-10-9/10-|
|0-0---------------------|0-0---------------8-7/8--|
|0-0-------------000-3/5-|0-0----------------------|

Verso
E|----------------------------|------------------------|
B|----------------------------|------------------------|
G|----------------------------|----------------------5-|
D|-----7-7/8------------------|----7-7/8-8-7-5---------|
A|-0-0------------------------|----------------8-7-8---|
E|-0-0--------000-000-000-000-| 000---------------------|

E|------------------------|------------------------|--------------|
B|------------------------|------------------------|--------------|
G|------------------------|------------------------|--------------|
D|----7-7/8-5-5/7---------|----7-7/8--8-7-5--------|-7-5----------|
|0-0---------------------|0-0---------------8-7/8-|-----8-7--0-2-|
|0-0-------------000-3/5-|0-0---------------------|----------0-2-|

Estribillo
E|------------------|------------------|
B|------------------|------------------|
G|------------------|------------------|
D|------------------|------------------|
|0---2-2--3---5-5--|7---8-8--7---2-3--|
|0---2-2--3---5-5--|7---8-8--7---2-3--|

                                         x2

E|------------------|------------------| /
B|------------------|------------------|
G|------------------|------------------|
D|------------------|--------------| <3>-|
|0---2-2--3---5-5--|-3---3-5-3-2------|
|0---2-2--3---5-5--|-3---3-5-3-2------|

Interlude
E|-----------------------------|----------------------|
B|-----------------------------|----------------------|
G|-----------------------------|----------------------|
D|-----------------------------|----------------------|
A|-0-0-0--0-0--0--0-0--0-0-3-5-|-0-0-0--0-0--0--0-5/3-|
E|-0-0-0--0-0--0--0-0--0-0-3-5-|-0-0-0--0-0--0--0-5/3-|

E|-----------------------------|--------------------|
B|-----------------------------|--------------------|
G|-----------------------------|--------------------|
D|-----------------------------|--------------------|
A|-0-0-0--0-0--0--0-0--0-0-3-5-|-0-0-0--0-0--0--0---|
E|-0-0-0--0-0--0--0-0--0-0-3-5-|-0-0-0--0-0--0--0---|

E|---------------------------|------------------|
B|---------------------------|------------------|
G|---------------------------|------------------|
D|--------5-8----------------|--------5-2-------|
A|-0-0-0--3-6--3-5-3-6-3-3/5-|-0-0-0--3-0---3-0-|
E|-0-0-0---------------------|-0-0-0------------|

                                                  x2

E|---------------------------|-----------------| /
B|---------------------------|-----------------|
G|---------------------------|-----------------|
D|--------5-8----------------|-------5-2-------|
A|-0-0-0--3-6--3-5-3-6-3-3/5-|-0-0-0-3-0-12///-|
E|-0-0-0---------------------|-0-0-0-----12///-|

E|----------------------------|
B|----------------------------|
G|----------------------------|
D|----------------------------|
A|----------------------------|
E|-0-1-0--0-1-0--0-1-0--0-1-0-|

verso final
E|----------------------------|----------------------------|
B|----------------------------|----------------------------|
G|----------------------------|----------------------------|
D|----------------------------|----------------------------| x3
A|----------------------------|----------------------------|
E|-0-1-0--0-1-0--0-6-0--0-1-0-|-00000--00000--00000--00000-|

E|----------------------------|----------------------------|
B|----------------------------|----------------------------|
G|----------------------------|----------------------------|
D|----------------------------|----------------------------|
A|----------------------------|----------------------------|
E|-0-1-0--0-1-0--0-6-0--0-1-0-|-33333--22222--88888--77777-|
00:00 / 00:00
Otros videos de esta canción
Repetir
Otros videos de esta canción
Composición de Plan 4
5 vistas
    • ½ Tono
    • Am
    • Bbm
    • Bm
    • Cm
    • C#m
    • Dm
    • Ebm
    • Em
    • Fm
    • F#m
    • Gm
    • G#m
  • Agregar a la lista

    0 comentarios

    Ver todos los comentarios

    ¿Lograste tocar?

    0 Tocaron 0 Aún no

    ¡Graba un video tocando Ella y envíanoslo!

    00:00 / 00:00
    OK