Cifra Club

Es un secreto

Plan B

Cifrado: Principal (guitarra y guitarra eléctrica)
tono: E
Será cuestión de tiempo
E|-------------|
B|--5-5-5-5-5-5|
g|6------------|
D|-------------|

(Presentimiento...)
E|---------|
B|--5-7-4--|
g|6-------6|
D|---------|

De un lugar, de un momento...
E|-------------|
B|--5-5---5-5-5|
g|6-----6------|
D|-------------|

E|----|
B|-7-7|
G|-6-6|
D|-7-7|



“Chencho”

Conozco tu debilidad
Cómo haces para envolverte
Si no es  hoy,  mañana  tal vez
Pero algún día voy a tenerte

E|-------------------------------|
B|-----7-7-7-7-------------------|
g|6-6-6--------------------------|
D|------------7-7-7-7-7-7-7-7-7-6|
A|-------------------------------|
E|-------------------------------|

E|--------------------------------------|
B|----9-7-------------------------------|
G|-9-9---9-8-8-8-6----------------------|
D|-----------------6-6-6-6-6-6-6-6-6-9-7|
A|--------------------------------------|
E|--------------------------------------|

Tengo la capacidad
Sin  que me hables entenderte
Yo sé lo que traes en tu mente
Que estás loca por tenerme...

E|------------------------------------------------------------7---|
B|-----7-7-7-7--------------------9-7-------------9-----9---9---10|
g|6-6-6-------------------------9----9-8-8-8-8-6----9-9---9-------|
D|------------7-7-7-7-7-7-7-7-6-----------------------------------|
A|----------------------------------------------------------------|
E|----------------------------------------------------------------|

ESTRIBILLO:
Es un secreto
De tu mirada y la mía
Un presentimiento
Como un ángel que me decía...
(Repite)

E|---------------------------------------------------------|
B|---------------------------------------------------------|
G|--------6---------6-----------------------------6--------|
d|4-4-6-7---4-4-6-7---9-7-6--6-6-6-6---------6----9-6-7-7|
A|------------------------------------7--7-7-9-------------|
E|---------------------------------------------------------|

“Maldy”

Será cuestión de tiempo
De un lugar, de un momento
De una palabra, de un encuentro
De una noche, de un intento
Tranquilito confiando en lo que creo

E|---------------------------------------|
B|--5-5-5-5-5-5---5-5---5-5-5---5-5-5-5--|
g|6-------------6-----6-------6---------6|
D|---------------------------------------|

E|---------------------------------------------|
b|5-5-5---5-5-5---5-5-5---5-5-5-5-5-5-5-5-5-5-5|
G|------6-------6-------6----------------------|
D|---------------------------------------------|

Tu mente me llama me llama
Y yo le contesto
Mi mente descansa y con el deseo la alimento
Yo sé que estamos cerca de que pase el suceso
De una historia, de un recuerdo...

E|------------------------------------------|
B|---5*14-----5*14-----5*14----5-5-5---5-5-5|
g|6--------6--------6--------6-------6------|

-D PITE ESTRIBILLO-

“Chencho”
Tú sabes que naciste pa' mí
Tu eres mi gusto mi flow
Lo mismo te pasa a ti
Cuando estás cerquita de mí

E|-------------------------------------------------------------------|
B|--7-7-5-7-7-5-7------7-7-5-7-7-5----7-5-4-5-7-4------4-5-4-7-5-4---|
g|6---------------6—6--------------6---------------6—6--------------6|
D|-------------------------------------------------------------------|
A|-------------------------------------------------------------------|
E|-------------------------------------------------------------------|


El deseo es tanto
Que llevas por dentro
Sin decir nada haciéndolo lento

E|-------------------------------------------------------|
B|-----------7-------------7------------7-------------7--|
g|6-6-6-6-6----6---6-6-6-6---6---6-6-6----6---6-6-6-6---6|
D|-------------------------------------------------------|
A|-------------------------------------------------------|
E|-------------------------------------------------------|

Mientras me deleito
Aprovecha el momento
Mami! mamiii!...

E|-----------------------------------|
B|---5-7-5-4---------5-7-5-4---5-5-9-9|
g|6---------6---6-6---------6--------|
D|-----------------------------------|
A|-----------------------------------|
E|-----------------------------------|

“Maldy”

Tú eres una barbie
Muñeca princesa
Y no es de mattel
Tú eres perfecta
Tu cara tu cuerpo
Tus ojos también tu piel


E|--------------------------------|
b|7-7-5-7------7-7-7-7-7-7-7-7-7-7|
G|-------6---6--------------------|
D|--------------------------------|

E|---------------------------------------|
b|7-7-5-7---------7-7-7-7-7-7-7-7-7-7-7-7|
G|---------6---6-------------------------|
D|---------------------------------------|

Te quiero completa
Baila sensual así te quiero ver
Juntitos, solitos nos vamos a complacer...

E|-----------------------------------|
b|7-7-7-5-7----7-7-7-7---7-7-7-7-5-7|
G|----------6-----------------------|
D|----------------------------------|

E|--------------------------------|
b|7-5-7---7-7-7-7-7-7-7-7-7-7-7-7|
G|------6------------------------|
D|-------------------------------|

Repite “Maldy”

-D PITE ESTRIBILLO-

RITMO FINAL (4 veces):

E|----------------------------------------------|
B|-----------------------------5-----------5----|
G|----6-----------6----------6---6-------6---6--|
D|--7---7-------7---7-----6--------6---6-------6|
a|9-------9---9-------9-------------------------|
E|----------------------------------------------|
00:00 / 00:00
Otros videos de esta canción
Repetir
Otros videos de esta canción
Composición de Chencho Corleone / Maldy
21 vistas
    • ½ Tono
    • A
    • Bb
    • B
    • C
    • Db
    • D
    • Eb
    • E
    • F
    • F#
    • G
    • Ab
  • Agregar a la lista

    0 comentarios

    Ver todos los comentarios

    ¿Lograste tocar?

    0 Tocaron 0 Aún no

    ¡Graba un video tocando Es un secreto y envíanoslo!

    00:00 / 00:00
    OK