Cifra Club

Com certeza

Planta e Raiz

Tab de bajo: Principal
Intro
g--------------------------------------------------|
d--------7-7--------------------5------5h7---------|
a------7-----7--------------5h7----5h7-------------|
e--5-5---------5---3--4--5-------------------------|

g-------------------------------141412-------------|
d-------7-7-------------5-6-7---------14-----------|
a-----7-----7---------------------------12/0-------|
e-5-5---------5--3-4-5-----------------------------|

verso                                                     
g--------------------------------------------------|      
d--------------------------------------------------|          
a--.---77-5-3-0----00-33--5-3-5-3-5-3-5-3-77-55-33-|             
e-55-5-----------0---------------------------------|            
                                                                                                                           
g--------------------------------------------------|              
d--------------------------------------------------|               
a-------.----77-5-3-0----00--3-3--5-3-5-3-5-3-5-3--|            
e-33-5-55-5-----------0----------------------------|       
                                                           
g--------------------------------------------------|
d--------------------------------------------------|
a--77--55-33---------------------------------------|
e-------------3-3-5--------------------------------|

 ponte
g--------------------------------------------------|
d-------7-7-----------7----------------------------|
a-----7-----7-------7------------0-3--------2-5----|   4x
e-5-5---------5------------11-1-------33-3---------|

na quinta vez (depois da quarta vez que vc faz a ponte) a ponte eh assim
g---------------------------------------------------------------|
d-------7--7--------7----------------5-------5------------------|
a-----7------7----7----------0-3-------5-------5----------------|
e-5-5----------5--------11-1------3--------3------3-4-5---------|

refrão                                                    
g--------------------------------------------------|    /  
d--------------------------------------------------|     /        
a--.---77-5-3-0----00-33--5-3-5-3-5-3-5-3-77-55-33-|      /        
e-55-5-----------0---------------------------------|       /        
                                                            /      
                                                             /        
g--------------------------------------------------|          /         
d--------------------------------------------------|           /   
a-------.----77-5-3-0----00--3-3--5-3-5-3-5-3-5-3--|            / 2x
e-33-5-55-5-----------0----------------------------|           /
                                                              /
g--------------------------------------------------|         /
d--------------------------------------------------|        /
a--77--55-33---------------------------------------|       /
e-------------3-3-5--------------------------------|   ////

ponte
g--------------------------------------------------|
d-------7-7-----------7----------------------------|
a-----7-----7-------7------------0-3--------2-5----|  3x
e-5-5---------5------------11-1-------33-3---------|

na quarta vez ele faz uma doidera muito legal eh assim
g---------------------5h7---------------------------------------|
d-------7--------5h7-------5h7----------------------------------|
a-----7-----5h7----------------------5h7--------0-3--------2-5--|
e-5-5---------------------------5h7--------11-1------33-3-------|

depois faz issu
g---------------------------------------------------------------|
d-------7--7--------7----------------5-------5------------------|
a-----7------7----7----------0-3-------5-------5----------------|
e-5-5----------5--------11-1------3--------3------3-4-5---------|

refrão                                                    
g--------------------------------------------------|    
d--------------------------------------------------|             
a--.---77-5-3-0----00-33--5-3-5-3-5-3-5-3-77-55-33-|             
e-55-5-----------0---------------------------------|              
                                                                                                                            
g--------------------------------------------------|           
d--------------------------------------------------|         
a-------.----77-5-3-0----00--3-3--5-3-5-3-5-3-5-3--|           
e-33-5-55-5-----------0----------------------------|         
                                                            
g--------------------------------------------------|      
d--------------------------------------------------|      
a--77--55-33---------------------------------------|     
e-------------3-3-5--------------------------------|

g--------------------------------------------------|    
d--------------------------------------------------|             
a--.---77-5-3-0----00-33--5-3-5-3-5-3-5-3-77-55-33-|             
e-55-5-----------0---------------------------------|              
                                                                                                                             
g---------------------------------------------------           
d---------------------------------------------------         
a-------.----77-5-3-0----00--3-3--5>>--7--5--3------           
e-33-5-55-5-----------0-------------------------3--5         
                                                            
ponte
g--------------------------------------------------|
d-------7-7-----------7----------------------------|
a-----7-----7-------7------------0-3--------2-5----|  6x
e-5-5---------5------------11-1-------33-3---------|

na setima vez faz
g---------------------------------------------------------------|
d-------7--7--------7----------------5-------5------------------|
a-----7------7----7----------0-3-------5-------5----------------|
e-5-5----------5--------11-1------3--------3------3-4-5---------|

fim
g--------------------------------------------------|    
d--------------------------------------------------|             
a--.---77-5-3-0----00-33--5-3-5-3-5-3-5-3-77-55-33-|             
e-55-5-----------0---------------------------------|              
                                                                                                                           
g--------------------------------------------------|           
d--------------------------------------------------|         
a-------.----77-5-3-0----00--3-3--5-3-5-3-5-3-5-3--|           
e-33-5-55-5-----------0----------------------------|         
                                                            
g--------------------------------------------------|      
d--------------------------------------------------|      
a--77--55-33---------------------------------------|     
e-------------3-3-5--------------------------------|

g--------------------------------------------------|    
d--------------------------------------------------|             
a--.---77-5-3-0----00-33--5-3-5-3-5-3-5-3-77-55-33-|             
e-55-5-----------0---------------------------------|              
                                                                                                                          
g---------------------------------------------------           
d---------------------------------------------------         
a-------.----77-5-3-0----00--3-3--5>>--7--5--3------           
e-33-5-55-5-----------0-------------------------3--5         
00:00 / 00:00
Otros videos de esta canción
Repetir
Otros videos de esta canción
Composición de Zeider Pires
Colaboración y revisión:
  • Jonas Machado
149 vistas

0 comentarios

Ver todos los comentarios

¿Lograste tocar?

2 Tocaron 0 Aún no

¡Graba un video tocando Com certeza y envíanoslo!

00:00 / 00:00
OK