Cifra Club

Coisa Feia

Ponto De Equilibrio

Chords: Principal (acoustic and electric guitars)
tone: Em
[Intro] Em  D  Em  D

   Em                                D    
E|-6/7--7--7--7---6/7---7--7--7--7---5--5--5--5-------|
B|-7/8--8--8--8---7/8---8--8--8--8---7--7--7--7-------|
G|-8/9--9--9--9---8/9---9--9--9--9---7--7--7--7-------|
D|----------------------------------------------------|
A|----------------------------------------------------|
E|----------------------------------------------------|

E|--5--5--5--5----------------------------------------|
B|--7--7--7--7----------------------------------------|
G|--7--7--7--7----------------------------------------|
D|----------------------------------------------------|
A|----------------------------------------------------|
E|----------------------------------------------------|

Em
Isso é coisa, coisa... Mas isso é coisa

Isso é coisa. Isso é coisa
 D
Seu assunto principal é falar mal
Em
Onde você vai chegar assim? aonde vai?

Onde você vai chegar assim?
 D
Seu assunto principal, é falar mal da vida alheia
 Em
Mas isso é coisa feia, Isso é coisa feia

D  
Antes, Antes
           Em
De julgar mal
 
Por que não olha si mesmo
              D
Verá que está 

Cometendo maior (maior)
    Em
Ou mesmo erro
D
Onde você vai chegar assim? Aonde vai?

Onde vai chegar assim?
    Em
Contando historias sem fim... (dele e de mim)
 D
Seu assunto principal é falar mal da vida alheia
 Em
Mas isso é coisa feia, isso é coisa feia

 D
Falando mal, você gasta tempo e energia
                       Em
Ao invés de levar a magia a um irmão teu
D                       Em
Onde você chegar assim? Onde você vai chegar assim?

 D
Seu assunto principal é falar mal da vida alheia
                  Em
Mas isso é coisa feia, isso é coisa feia

  D
Quando não souber o que falar, não fale nada
Em
Então não venha me ocupar apontando
                                 D
Os defeitos dos outros, como se fosse normal
                                 Em
Julgando-se perfeito, isso em si é um defeito
                 
E você pode ver
 D
Todos nós temos uma infinidade
                             Em                   D
Mas também temos qualidades que nem da pra contar 

 Em
Fala de fulano, fala de ciclano 
 D
Fala de fulano, fala de ciclano

 Em
Fala de fulano, fala de ciclano 
 D
Fala de fulano, fala de ciclano

[Final] Em  D
00:00 / 00:00
Other videos of this song
Repeat
Other videos of this song
Composer not found.
4.024 views
    • ½ Tone
    • Am
    • Bbm
    • Bm
    • Cm
    • C#m
    • Dm
    • Ebm
    • Em
    • Fm
    • F#m
    • Gm
    • G#m
  • Add to list
    00:00 / 00:00
    OK